PrimaNota.ru - самый крупный в мире бесплатный архив песенных текстов, аккордов, табулатур и нот


Candlemass - Cylinder - таба, видео

Регистрация Запомнить меня
Войти через:  Facebook Google Twitter Vk Yandex Mail.ru

Candlemass - Cylinder - таба, видео

Печатать
Просмотров: 111
Уроки эстрадного вокала в Санкт-Петербурге
Riff 1:
      |(actual riff begins here)
C |---|-----------------------------------------------------------------------------|
G |---|-----------------------------------------------------------------------------|
Eb|---|-----------------------------------------------------------------------------|   x1
Bb|---|-----------------7---------------------------------------7-------------------|
F |---|-9-10-9-----9-10---10-9---9-10-9---------9-10-9-----9-10---10-9---9-10-9-----|
C |-7-|----------7-------------7----------7---7----------7-------------7----------7-|

Riff 2:

C |---------------------------------------------------------------------------|
G |---------------------------------------------------------------------------|
Eb|---------------------------------------------------------------------------|   x1
Bb|---6-7-6-----6-7-9-7-6---8-9-8---------6-7-6-----6-7-9-7-6---8-9-8---6-----|
F |-----------------------------------------------------------------------6---|
C |-7---------7-----------7---------7-4-5---------7-----------7-------------7-|

Riff 1 x1

Riff 2 x1

Riff 3:

C |------------------------------------------------------------------------|
G |------------------------------------------------------------------------|
Eb|-12------12-11-12--12-11-12-11-9-11-12-12-11-12--12-11-12-11-11-9-9-----|   x1
Bb|-12------12-11-12--12-11-12-11-9-11-12-12-11-12--12-11-12-11-11-9-9-----|
F |-10------10--9-10--10--9-10--9-7--9-10-10--9-10--10--9-10--9--9-7-7-----|
C |----------------------------------------------------------------------7-|

Riff 1 x1

Riff 2 x1

Riff 1 x1

By the end of Riff 1 the song fades to silence.
Добавлено: 21.11.2015
Другие материалы по этой песне:
  • Аккорды и текст

Страница создана 21.11.2015
http://primanota.ru/candlemass/cylinder-chords.htm
Привет, Гость.
Предлагаем пройти революционный курс по гитаре.
Подарок от PrimaNota.Ru, забирай!