PrimaNota.ru - самый крупный в мире бесплатный архив песенных текстов, аккордов, табулатур и нот


Candlemass - White God - таба, видео

Регистрация Запомнить меня
Войти через:  Facebook Google Twitter Vk Yandex Mail.ru

Candlemass - White God - таба, видео

Печатать
Просмотров: 181
Уроки эстрадного вокала в Санкт-Петербурге
-----------------------------------------------------------------------------------
Song: White God
Band: Candlemass
Album: Lucifer Rising
Tabbed by: TrollFaceJesus
E-mail: trollfacejesus@gmail.com


Hey everyone, this is my tab for this song, and I think it sounds pretty awesome.
All of the rhythm sections in the song are here, but I didn't tab out the solo.
Hopefully everything in here is accurate, and you guys find this tab to be helpful!
If you have any comments, questions, or corrections to point out, please feel free
to leave a message here, or to send me an email! :D



Tuning: C#



Riff 1a (Guitar 1)

 1 e + a 2 e + a 3 e + a 4 e + a 1 e + a 2 e + a 3 e + a 4 e + a
|-------------------------------|-------------------------------|
|--------3---2h3---------3---2--|--------6---5-----------6---5--|
|-------------------------------|-------------------------------| x1
|----4---------------4----------|0---------------0--------------|
|2---------------2--------------|----0---------------0----------|
|-------------------------------|-------------------------------|


Riff 1a (Guitar 2)

 1 e + a 2 e + a 3 e + a 4 e + a 1 e + a 2 e + a 3 e + a 4 e + a
|-------------------------------|-------------------------------|
|-------------------------------|-------------------------------|
|-------------------------------|-------------------------------| x1
|-------------------------------|0---------------0--------------|
|2---------------2--------------|-------------------------------|
|-------------------------------|-------------------------------|



Riff 1b (Guitar 1)

 1 e + a 2 e + a 3 e + a 4 e + a 1 e + a 2 e + a 3 e + a 4 e + a
|-------------------------------|-------------------------------|
|--------3---2h3---------3---2--|-------------------------------|
|-------------------------------|--------1---------------1------| x1
|----4---------------4----------|------------3---------------3--|
|2---------------2--------------|----3---------------3----------|
|-------------------------------|1---------------1--------------|



Riff 1b (Guitar 2)

 1 e + a 2 e + a 3 e + a 4 e + a 1 e + a 2 e + a 3 e + a 4 e + a
|-------------------------------|-------------------------------|
|-------------------------------|-------------------------------|
|-------------------------------|--------1---------------1------| x1
|-------------------------------|------------3---------------3--|
|2---------------2--------------|----3---------------3----------|
|-------------------------------|1---------------1--------------|



Riff 1a x 1

Riff 1b x 1



Riff 2a

 1 e + a 2 e + a 3 e + a 4 e + a
|-------------------------------|
|-------------------------------|
|-------------------------------| x3
|-------------------------------|
|----------------2-------3---2--|
|1b====2-0-----------0----------|



Riff 2b (Guitar 1)

 1 e + a 2 e + a 3 e + a 4 e + a
|-------------------------------|
|-------------------------------|
|-------------------------------| x1
|------------------------3---2--|
|----------------2--------------|
|1b====2-0-----------0----------|


Riff 2b (Guitar 2)

 1 e + a 2 e + a 3 e + a 4 e + a
|-------------------------------|
|-------------------------------|
|-------------------------------| x1
|-------------------------------|
|----------------2-------3---2--|
|1b====2-0-----------0----------|



Riff 2a x 3

Riff 2b x 1



Riff 2c

 1 e + a 2 e + a 3 e + a 4 e + a
|-------------------------------|
|-------------------------------|
|-------------------------------| x2
|----------------2-------3---2--|
|1b====2-0-----------0----------|
|-------------------------------|



Riff 2a x 2



Riff 3a (Guitar 1)

 1 e + a 2 e + a 3 e + a 4 e + a 1 e + a 2 e + a 3 e + a 4 e + a
|-------------------------------|-------------------------------|
|-------------------------------|-------------------------------|
|-------------------------------|-------------------------------| x1
|12-----12---11--9--------------|5-------5---4---2--------------|
|10-----10---9---7--------------|3-------3---2---2--------------|
|-------------------------------|----------------0--------------|


Riff 3a (Guitar 2)

 1 e + a 2 e + a 3 e + a 4 e + a 1 e + a 2 e + a 3 e + a 4 e + a
|-------------------------------|-------------------------------|
|-------------------------------|-------------------------------|
|-------------------------------|-------------------------------| x1
|-------------------------------|5-------5---4------------------|
|5-------5---4---2--------------|3-------3---2---2--------------|
|3-------3---2---0--------------|----------------0--------------|



Riff 3b (Guitar 1)

 1 e + a 2 e + a 3 e + a 4 e + a 1 e + a 2 e + a 3 e + a 4 e + a
|-------------------------------|-------------------------------|
|-------------------------------|-------------------------------|
|-------------------------------|-------------------------------| x1
|12-----12---11--9--------------|5-------5---7---9--------------|
|10-----10---9---7--------------|3-------3---5---7--------------|
|-------------------------------|-------------------------------|


Riff 3b (Guitar 2)

 1 e + a 2 e + a 3 e + a 4 e + a 1 e + a 2 e + a 3 e + a 4 e + a
|-------------------------------|-------------------------------|
|-------------------------------|-------------------------------|
|-------------------------------|-------------------------------| x1
|-------------------------------|5-------5---7---9--------------|
|5-------5---4---2--------------|3-------3---5---7--------------|
|3-------3---2---0--------------|----------------0--------------|



Riff 3a x 1

Riff 3b x 1

Riff 2a x 3

Riff 2b x 1

Riff 2a x 3

Riff 2b x 1

Riff 2c x 2

Riff 2a x 1

Riff 2b x 1

Riff 3a x 1

Riff 3b x 1

Riff 3a x 1

Riff 3b x 1

Riff 1a x 1

Riff 1b x 1

Riff 1a x 1

Riff 1b x 1



Riff 4a

 1 e + a 2 e + a 3 e + a 4 e + a 1 e + a 2 e + a 3 e + a
|-------------------------------|-----------------------|
|-------------------------------|-----------------------|
|-------------------------------|-----------------------| x1
|4------------------------------|-----------------------|
|------------------------2------|-----------------------|
|--------3---2---3---2---0------|2-------3--------------|



Riff 4b

 1 e + a 2 e + a 3 e + a 4 e + a 1 e + a 2 e + a 3 e + a
|-------------------------------|-----------------------|
|-------------------------------|-----------------------|
|-------------------------------|-----------------------| x1
|4---4-------------------2------|4-------5--------------|
|------------------------0------|2-------3--------------|
|--------3---2---3---2----------|-----------------------|



Riff 4a x 1

Riff 4b x 1

Riff 4a x 1



Riff 4c

 1 e + a 2 e + a 3 e + a 4 e + a 1 e + a 2 e + a 3 e + a
|-------------------------------|-----------------------|
|-------------------------------|-----------------------|
|-------------------------------|-----------------------| x1
|4---4-------------------2---2--|4---4---5--------------|
|------------------------0---0--|2---2---3--------------|
|--------3---2---3---2----------|-----------------------|



Riff 4a x 1

Riff 4b x 1

Riff 2a x 3

Riff 2b x 1

Riff 2a x 3

Riff 2b x 1

Riff 2c x 2

Riff 2a x 1

Riff 2b x 1

Riff 3a x 1

Riff 3b x 1

Riff 3a x 1

Riff 3b x 1

Riff 3a x 1

Riff 3b x 1

Riff 3a x 1

Riff 3b x 1



And that's it!



************************************

| /   slide up
| \   slide down
| h   hammer-on
| p   pull-off
| v   vibrato
| +   harmonic
| •   mute note
| b   bend
| pb  pre-bend
| br  bend release
| pbr pre-bend release
| brb bend release bend
| =   bend/bend release duration

************************************
Добавлено: 15.06.2015
Другие материалы по этой песне:
  • Аккорды и текст

Страница создана 15.06.2015
http://primanota.ru/candlemass/white-god-chords.htm
Привет, Гость.
Предлагаем пройти революционный курс по гитаре.
Подарок от PrimaNota.Ru, забирай!