PrimaNota.ru - самый крупный в мире бесплатный архив песенных текстов, аккордов, табулатур и нот


Candlemass - Blumma Apt - текст песни, таба, видео

Регистрация Запомнить меня
Войти через:  Facebook Google Twitter Vk Yandex Mail.ru

Candlemass - Blumma Apt - текст песни, таба, видео

Печатать
Просмотров: 109
Riff 1:

C |--------------------------------|
G |--------------------------------|
Eb|--------------------------------|   x2
Bb|--------------------------------|
F |-2--3--6\2-2-----2--3--6\5-5----|
C |-0--1--4\0-0-----0--1--4\3-3----|

Riff 2:

C |--------------------------------|
G |--------------------------------|
Eb|--------------------------------|   x4
Bb|--------------------------------|
F |--------------------------------|
C |-0--1--4-0-------0--1--4-3------|

Riff 1 x2

Riff 2 x4

Riff 1 x2

Riff 3:

C |-----------------------------|
G |-----------------------------|
Eb|-----------------------------|   x4
Bb|-----------------------------|
F |-2-------------3-------------|
C |----------------------2------|

Riff 4:

C |-----------------------------|
G |-----------------------------|
Eb|-----------------------------|   x4
Bb|-----------------------------|
F |-2--2-2-2--2-2-3--3-3--------|
C |----------------------2--2-2-|

Riff 1 x1

Riff 1':

C |--------------------------------|
G |--------------------------------|
Eb|--------------------------------|
Bb|--------------------------------|
F |-2--3--6\2-2-----2--3--6\5------|
C |-0--1--4\0-0-----0--1--4\3------|

Riff 5:

C |---------------------------------|
G |---------------------------------|
Eb|---------------------------------|   x5
Bb|---------------------------------|
F |-2--6-5-2-6-5----2--6-5-2-6-5--3-|
C |-0--4-3-0-4-3----0--4-3-0-4-3--1-|

Outro:

C |--------------------------------|
G |--------------------------------|
Eb|--------------------------------|
Bb|--------------------------------|
F |-2--6-5-2-6-5----2--6----5------|
C |-0--4-3-0-4-3----0--4----3------|
Добавлено: 21.11.2015
Другие материалы по этой песне:
  • Аккорды и текст

Страница создана 12.05.2012
http://primanota.ru/candlemass/blumma-apt-chords.htm
Привет, Гость.
Предлагаем пройти революционный курс по гитаре.
Подарок от PrimaNota.Ru, забирай!