PrimaNota.ru - самый крупный в мире бесплатный архив песенных текстов, аккордов, табулатур и нот


Candlemass - Black As Time - таба, видео

Регистрация Запомнить меня
Войти через:  Facebook Google Twitter Vk Yandex Mail.ru

Candlemass - Black As Time - таба, видео

Печатать
Просмотров: 189
Уроки эстрадного вокала в Санкт-Петербурге
------------------------------------------------------------------------------
                           -=[Black As Time - Candlemass]=-
------------------------------------------------------------------------------
Song: Black As Time
Band: Candlemass
Album: Psalms for the Dead
Tabbed by: TrollFaceJesus
E-mail: trollfacejesus@gmail.com


Hey everyone, this is my tab for this badass Candlemass song, and I think it 
sounds pretty awesome. All of the rhythm sections are in here, as well as the 
second mini solo in the song (although I'm not 100% sure that it's completely 
right). Hopefully everything here is accurate, and that you guys find it to be 
helpful. If you have any comments, questions, or corrections to point out, 
please feel free to leave a message here, or to send me an email! :D


Tuning: C#


Riff 1
|------------------------------------------|
|------------------------------------------|
|---------------------------------7-6------| x8
|--5\4---4---5\4---4---5\4---4--------5-4--|
|--5\4---4---5\4---4---5\4---4-------------|
|--3\2-0-2---3\2-0-2---3\2-0-2-------------|
       .         .         .

Riff 2
|----------------------|
|----------------------|
|--------------5-4-5v~-| x1
|----------5-4---------|
|------5-4-------------|
|--3-2-----------------|


Riff 3
|------------------------------------------|
|------------------------------------------|
|-------------------7----------------------| x4
|--2--4-------------7---4------------------|
|--2--4-------------5---4-------------2----|
|--0--2--3-2-1--2-------2---3-2-3-2-----1--|
         . . .              . . . .

Riff 4
|-----|
|-----|
|-----| x1
|--2--|
|--2--|
|--0--|


Bass Break
|---------------------------------|
|----------------------------5-4--| x2
|--2--2-----------2--2------------|
|--------0-3-2-1--------2-3-------|


Riff 5
|---------------------------------|
|---------------------------------|
|---------------------------------| x4
|----------------------------5-4--|
|--2--2-----------2--2------------|
|--------0-3-2-1--------2-3-------|


Mini Solo (Guitar 1)
|-------------------------------|
|-------------------------------|
|-------------------------------| 
|--9-9-10-10-10-9-10-9-7/10-7v~-|
|-------------------------------|
|-------------------------------|

|--------------------------------------|
|--------------------------------------|
|--------------------------------------|
|--6-6-7-7-7-6-7--6h7p6---7-6tr7---6\--|
|-----------------------8--------------|
|--------------------------------------|

|------------------------------|
|------------------------------|
|------------------------------| 
|--9-9-10-9-10-9-10br-7/10-9v~-|
|------------------------------|
|------------------------------|

|--/7-7-8-8-10-10-12-12p10-12p10-7v~-|
|------------------------------------|
|------------------------------------| 
|------------------------------------|
|------------------------------------|
|------------------------------------|

Riff 6 (Plays under guitar solo)
|----------------------------|
|----------------------------|
|----------------------------| x4
|----------------------------|
|-----7-7-8-8-8-7-8-7-5/8-7--|
|--0-------------------------|


Riff 5 x 4

Riff 6 x 4 (Plays under keyboard solo)

Riff 1 x 8

Riff 2 x 1

Then play riff 3 until the end of the song.


And that's it!

************************************

| /   slide up
| \   slide down
| h   hammer-on
| p   pull-off
| v   vibrato
| .   Mute note
| *   harmonic
| b   Bend
| pb  Pre-bend
| br  Bend release
| pbr Pre-bend release
| brb Bend release bend

************************************
Добавлено: 20.07.2013
Другие материалы по этой песне:
  • Аккорды и текст

Страница создана 20.07.2013
http://primanota.ru/candlemass/black-as-time-chords.htm
Привет, Гость.
Предлагаем пройти революционный курс по гитаре.
Подарок от PrimaNota.Ru, забирай!