PrimaNota.ru - самый крупный в мире бесплатный архив песенных текстов, аккордов, табулатур и нот


Candlemass - The Day And The Night - текст песни, таба, видео

Регистрация Запомнить меня
Войти через:  Facebook Google Twitter Vk Yandex Mail.ru

Candlemass - The Day And The Night - текст песни, таба, видео

Печатать
Просмотров: 78
-----------------------------------------------------------------------------------
Song: The Day and the Night
Band: Candlemass
Album: Candlemass
Tabbed by: TrollFaceJesus
E-mail: trollfacejesus@gmail.com


Hey everyone, this is my tab for this song, and I think it sounds pretty awesome.
All of the rhythm sections in the song are here, but I didn't tab out the solo.
Hopefully everything in here is accurate, and you guys find this tab to be helpful!
If you have any comments, questions or corrections to point out, please feel free
to leave a message here, or to send me an email! :D



Tuning: D-Standard



Intro (0:00)
============

Riff 1a

 1 e + a 2 e + a 3 e + a 4 e + a 1 e + a 2 e + a 3 e + a 4 e + a
|-------------------------------|-------------------------------|
|-------------------------------|-------------------------------|
|0---------------7---7---7------|6---6---6-------5---5---5------| x3
|----4---2-------5---5---5------|4---4---4-------3---3---3------|
|-------------------------------|-------------------------------|
|-------------------------------|-------------------------------|




Riff 1b

 1 e + a 2 e + a 3 e + a 4 e + a 1 e + a 2 e + a 3 e + a 4 e + a
|-------------------------------|3------------------------------|
|------------------------1------|----3--------------------------|
|0-------------------0-------0--|--------4----------------------| x1
|----4---2----------------------|--------4----------------------|
|----------------3--------------|--------2----------------------|
|-------------------------------|-------------------------------|




Verse I (0:24)
==============

Riff 1a x 3

Riff 1b x 1

Riff 1a x 3

Riff 1b x 1




Riff 1c

 1 e + a 2 e + a 3 e + a 4 e + a 1 e + a 2 e + a 3 e + a 4 e + a
|-------------------------------|3------------------------------|
|------------------------1------|----3--------------------------|
|--------------------0-------0--|--------4----------------------| x1 Note: Turn on distortion after striking
|-------------------------------|--------4----------------------|    the last chord in this riff.
|----------------3--------------|--------2----------------------|
|-------------------------------|-------------------------------|




Riff 2

 1 e + a 2 e + a 3 e + a 4 e + a 1 e + a 2 e + a 3 e + a 4 e + a
|-------------------------------|-------------------------------|
|-------------------------------|-------------------------------|
|-------------------------------|4---7---5----------------------| x4
|7---10--9----------------------|2---5---3----------------------|
|5---8---7----------------------|----------------3---2---3---2--|
|----------------0---0---0---0--|----------------1---0---1---0--|
                 .   .   .   .



Pre-Chorus I (1:39)
===================

Riff 3a

 1 e + a 2 e + a 3 e + a 4 e + a
|-------------------------------|
|-------------------------------|
|-------------------------------| x2
|-------------------------------|
|4---------------3--------------|
|2---------------1--------------|




Riff 3b

 1 e + a 2 e + a 3 e + a 4 e + a
|-------------------------------|
|-------------------------------|
|-------------------------------| x2
|4---------------5--------------|
|2---------------3--------------|
|-------------------------------|




Riff 3a x 2

Riff 3b x 2




Chorus I (2:02)
===============

Riff 3

 1 e + a 2 e + a 3 e + a 4 e + a 1 e + a 2 e + a 3 e + a 4 e + a 1 e + a 2 e + a 3 e + a 4 e + a
|-------------------------------|-------------------------------|-------------------------------|
|-------------------------------|-------------------------------|-------------------------------|
|-------------------------------|-------------------------------|------------------------5------| x1
|-------------------------------|3-------2---0---2--------------|2-------4-------5-------3------|
|3-------2---0---2--------------|-------------------------------|0-------2-------3--------------|
|-------------------------------|-------------------------------|-------------------------------|




Riff 4

 1 e + a 2 e + a 3 e + a 4 e + a
|-------------------------------|
|-------------------------------|
|-------------------------------| x2
|----------------3--------------|
|2------------------------------|
|0-------0---0-----------1------|
         .   .



Riff 3 x 1

Riff 4 x 4

Riff 2 x 4




Verse II (2:57)
===============

Riff 3a x 2

Riff 3b x 2

Riff 3a x 2

Riff 3b x 2




Chorus II (3:20)
================

Riff 3 x 1

Riff 4 x 2

Riff 3 x 1

Riff 4 x 4




Bridge (3:53)
=============

Riff 5a

 1 e + a 2 e + a 3 e + a 4 e + a 1 e + a 2 e + a 3 e + a 4 e + a
|-------------------------------|-------------------------------|
|-------------------------------|-------------------------------|
|-------------------------------|-------------------------------| x1
|------------1---2--------------|4-----------4---6--------------|
|4------------------------------|-------------------------------|
|-------------------------------|-------------------------------|




Riff 5b

 1 e + a 2 e + a 3 e + a 4 e + a 1 e + a 2 e + a 3 e + a 4 e + a
|-------------------------------|-------------------------------|
|-------------------------------|-------------------------------|
|-------------------------------|-------------------------------| x1
|------------1---2--------------|-------------------------------|
|4------------------------------|0-------2---0-----------3------|
|-------------------------------|----------------4--------------|




Riff 5a x 1

Riff 5b x 1




Riff 6a

 1 e + a 2 e + a 3 e + a 4 e + a
|-------------------------------|
|-------------------------------|
|-------------------------------| x3
|-------------------------------|
|-------------------------------|
|0-h-2---2---2---2--------------|
         .   .



Riff 6b

 1 e + a 2 e + a 3 e + a 4 e + a
|-------------------------------|
|-------------------------------|
|-------------------------------| x1
|-------------------------------|
|-------------------------------|
|2-h-3---3---3---3--------------|
         .   .



Riff 6a x 3

Riff 6b x 1

Riff 6a x 3

Riff 6b x 1

Riff 6a x 3

Riff 6b x 1

Riff 6a x 3

Riff 6b x 1




Solo (4:50)
===========

Riff 6a x 3

Riff 6b x 1

Riff 6a x 3

Riff 6b x 1

Riff 6a x 3

Riff 6b x 1

Riff 6a x 3

Riff 6b x 1

Riff 6a x 3

Riff 6b x 1

Riff 6a x 3

Riff 6b x 1

Riff 3 x 1




Riff 7

 1 e + a 2 e + a 3 e + a 4 e + a 1 e + a 2 e + a 3 e + a 4 e + a
|-------------------------------|-------------------------------|
|-------------------------------|-------------------------------|
|-------------------------------|-------------------------------|
|-------------------------------|-------------------------------|
|2------------------------------|-------------------------------|
|0------------------------------|-------------------------------|




Verse III (5:47)
================

Riff 1a x 3

Riff 1b x 1

Riff 1c x 1

Riff 2 x 4




Pre-Chorus II (6:39)
====================

Riff 3a x 2

Riff 3b x 2

Riff 3a x 2

Riff 3b x 2




Chorus III (7:02)
=================

Riff 3 x 1

Riff 4 x 2

Riff 3 x 1

Then play "Riff 4" until the end of the song, or until your fingers fall off/explode.



And that's it!



************************************

| /   slide up
| \   slide down
| h   hammer-on
| p   pull-off
| v   vibrato
| +   harmonic
| •   mute note
| b   bend
| pb  pre-bend
| br  bend release
| pbr pre-bend release
| brb bend release bend

************************************
Добавлено: 21.11.2015
Другие материалы по этой песне:
  • Аккорды и текст

Страница создана 29.03.2012
http://primanota.ru/candlemass/the-day-and-the-night-chords.htm
Привет, Гость.
Предлагаем пройти революционный курс по гитаре.
Подарок от PrimaNota.Ru, забирай!