PrimaNota.ru - самый крупный в мире бесплатный архив песенных текстов, аккордов, табулатур и нот


Candlemass - Galatea - текст песни, таба, видео

Регистрация Запомнить меня
Войти через:  Facebook Google Twitter Vk Yandex Mail.ru

Candlemass - Galatea - текст песни, таба, видео

Печатать
Просмотров: 153
Уроки эстрадного вокала в Санкт-Петербурге
Riff 1:

C |--------------5p3--------|
G |---------3h5------3-3h5^-|
Eb|----0h2------------------|   x8
Bb|-2-----------------------|
F |-------------------------|
C |-------------------------|

Riff 2:

C |---------------------|
G |---------------------|
Eb|---------------------|   x4
Bb|-7--6--5--4----------|
F |-7--6--5--4-/8---7---|
C |-5--4--3--2----8---7-|

Riff 1 x8

Riff 2 x4

Riff 3:

C |-----------------------|
G |-----------------------|
Eb|-----------------------|   x10
Bb|-7--6--5--4-/10----9---|
F |----------------10---9-|
C |-----------------------|

At the last 2 times the song fades to silence.
Добавлено: 21.11.2015
Другие материалы по этой песне:
  • Аккорды и текст

Страница создана 26.03.2012
http://primanota.ru/candlemass/galatea-chords.htm
Привет, Гость.
Предлагаем пройти революционный курс по гитаре.
Подарок от PrimaNota.Ru, забирай!