PrimaNota.ru - самый крупный в мире бесплатный архив песенных текстов, аккордов, табулатур и нот


Candlemass - Black Eyes - текст песни, таба, видео

Регистрация Запомнить меня
Войти через:  Facebook Google Twitter Vk Yandex Mail.ru

Candlemass - Black Eyes - текст песни, таба, видео

Печатать
Просмотров: 78
Song: Black Eyes
Band: Candlemass
Album: Chapter VI
Tabbed by: TrollFaceJesus
E-mail: trollfacejesus@gmail.com


Hey everyone, this is my tab for this song, and I think it sounds pretty awesome. All of the rhythm sections
in the song are here, but I didn't tab out the solos. Hopefully everything in here is accurate, and you guys
find this tab to be helpful! If you have any comments, questions or revisions to point out, please feel free
to leave a message here, or to send me an email! :D



Tuning: Eb



Intro (0:00)
============

Riff 1a
 1 e + a 2 e + a 3 e + a 4 e + a 1 e + a 2 e + a 3 e + a 4 e + a
|-------------------------------|-------------------------------|
|-------------------------------|-------------------------------|
|-------------------------------|-------------------------------| x1
|-------------------------------|-------------------------------|
|3------------------------------|-------------------------------|
|1--p--0-0-----0-0-----0-0-----0|0-----0-0-----0-1-1-1-1-1-1-1-1|
         .     . .     . .     . .     . .     . . . . . . . . .




Riff 1b
 1 e + a 2 e + a 3 e + a 4 e + a 1 e + a 2 e + a 3 e + a 4 e + a
|-------------------------------|-------------------------------|
|-------------------------------|-------------------------------|
|-------------------------------|-------------------------------| x1
|-------------------------------|----------------5-----4-----5--|
|3------------------------------|----------------3-----2-----3--|
|1--p--0-0-----0-0-----0-0-----0|0-----0-0-----0----------------|
         .     . .     . .     . .     . .     .




Riff 1a x 1




Riff 1c
 1 e + a 2 e + a 3 e + a 4 e + a 1 e + a 2 e + a 3 e + a 4 e + a
|-------------------------------|-------------------------------|
|-------------------------------|-------------------------------|
|-------------------------------|-------------------------------| x1
|-------------------------------|----------------3-----2-----3--|
|3------------------------------|3-----2-----3------------------|
|1--p--0-0-----0-0-----0-0-----0|-------------------------------|
         .     . .     . .     .




Verse I (0:16)
==============

Riff 1a x 1

Riff 1b x 1

Riff 1a x 1

Riff 1c x 1

Riff 1a x 1

Riff 1b x 1

Riff 1a x 1

Riff 1c x 1




Pre-Chorus I (0:46)
===================

Riff 2a
 1 e + a 2 e + a 3 e + a 4 e + a
|-------------------------------|
|-------------------------------|
|-------------------------------| x2
|----------------------3--------|
|------1-----3---4-----------4--|
|3------------------------------|




Riff 2b
 1 e + a 2 e + a 3 e + a 4 e + a
|-------------------------------|
|-------------------------------|    On the second time, the lead guitar plays the 4th note as a harmonic
|----------------------3--------| x2 and holds the note throughout the rest of the measure, while the rhythm
|------1-----3--[4]----------4--|    guitar plays the rest of the notes as shown normally.
|3------------------------------|
|-------------------------------|




Riff 2a x 2

Riff 2b x 2




Verse II (1:00)
===============

Riff 1a x 1

Riff 1b x 1

Riff 1a x 1

Riff 1c x 1

Riff 1a x 1

Riff 1b x 1

Riff 1a x 1

Riff 1c x 1




Pre-Chorus II (1:29)
====================

Riff 2a x 2

Riff 2b x 2

Riff 2a x 2

Riff 2b x 1




Riff 2c
 1 e + a 2 e + a 3 e + a 4 e + a
|-------------------------------|
|-------------------------------|
|-------------------------------| x1 Only the lead guitar plays the last note as a harmonic.
|------1-----3--[4]-------------|
|3------------------------------|
|-------------------------------|




Chorus I (1:43)
===============

Riff 3
 1 + 2 + 3 + 4 + 1 + 2 + 3 + 4 + 1 + 2 + 3 + 4 + 1 + 2 + 3 + 4 +
|---------------|---------------|---------------|---------------|
|---------------|---------------|---------------|---------------|
|---------------|---------------|---------------|5-------2------| x4
|---------------|5--------------|4--------------|3-------0------|
|2--------------|3--------------|2--------------|---------------|
|0--------------|---------------|---------------|---------------|




Bridge I (2:10)
===============

Riff 4a
 1 e + a 2 e + a 3 e + a 4 e + a 1 e + a 2 e + a 3 e + a 4 e + a
 ---3--- ---3--- ---3--- ---3--- ---3--- ---3--- ---3--- ---3---
|-------------------------------|-------------------------------|
|-------------------------------|-------------------------------|
|-------------------------------|-------------------------------| x1
|-------------------------------|-------------------------------|
|-------------------------------|-------------------------------|
|0--0--0-0--0--0-0--0--0-0--0--0|1--1--1-1--1--1-1--1--1-1--1--1|
 .  .  . .  .  . .  .  . .  .  . .  .  . .  .  . .  .  . .  .  .




Riff 4b
 1 e + a 2 e + a 3 e + a 4 e + a 1 e + a 2 e + a 3 e + a 4 e + a
 ---3--- ---3--- ---3--- ---3--- ---3--- ---3--- ---3--- ---3---
|-------------------------------|-------------------------------|
|-------------------------------|-------------------------------|
|-------------------------------|-------------------------------| x1
|-------------------------------|-------------------------------|
|-------------------------------|-------------------------------|
|4--4--4-4--4--4-4--4--4-4--4--4|3--3--3-3--3--3-3--3--3-3--3--3|
 .  .  . .  .  . .  .  . .  .  . .  .  . .  .  . .  .  . .  .  .




Riff 4c
 1 e + a 2 e + a 3 e + a 4 e + a 1 e + a 2 e + a 3 e + a 4 e + a
 ---3--- ---3--- ---3--- ---3--- ---3--- ---3--- ---3--- ---3---
|-------------------------------|-------------------------------|
|-------------------------------|-------------------------------|
|-------------------------------|-------------------------------| x1
|-------------------------------|-------------------------------|
|-------------------------------|-------------------------------|
|6--6--6-6--6--6-6--6--6-6--6--6|5--5--5-5--5--5-5--5--5-5--5--5|
 .  .  . .  .  . .  .  . .  .  . .  .  . .  .  . .  .  . .  .  .




Riff 4d
 1 e + a 2 e + a 3 e + a 4 e + a 1 e + a 2 e + a 3 e + a 4 e + a
 ---3--- ---3--- ---3--- ---3--- ---3--- ---3--- ---3--- ---3---
|-------------------------------|-------------------------------|
|-------------------------------|-------------------------------|
|-------------------------------|-------------------------------| x1
|-------------------------------|-------------------------------|
|-------------------------------|-------------------------------|
|4--4--4-4--4--4-4--4--4-4--4--4|3--3--3-3--3--3-2--2--2-2--2--2|
 .  .  . .  .  . .  .  . .  .  . .  .  . .  .  . .  .  . .  .  .




Solo I (2:24)
=============

Riff 5a (Rhythm)
 1 e + a 2 e + a 3 e + a 4 e + a 1 e + a 2 e + a 3 e + a 4 e + a
         ---3---         ---3---         ---3---         ---3---
|-------------------------------|-------------------------------|
|-------------------------------|-------------------------------|
|-------------------------------|-------------------------------| x1
|7-/-9-----------7-/-9----------|7-/-9-----------7-/-9----------|
|5-/-7---7--7--7-5-/-7---7--7--7|5-/-7---7--7--7-5-/-7---7--7--7|
|-------------------------------|-------------------------------|
         .  .  .         .  .  .         .  .  .         .  .  .




Riff 5b (Rhythm)
 1 e + a 2 e + a 3 e + a 4 e + a 1 e + a 2 e + a 3 e + a 4 e + a
         ---3---         ---3---         ---3---
|-------------------------------|-------------------------------|
|-------------------------------|-------------------------------|
|-------------------------------|-------------------------------| x1
|4-/-5-----------4-/-5----------|4-/-5--------------------------|
|2-/-3---3--3--3-2-/-3---3--3--3|2-/-3---3--3--3-5-------4------|
|-------------------------------|----------------3-------2------|
         .  .  .         .  .  .         .  .  . 




Riff 5a x 1




Riff 5c (Rhythm)
 1 e + a 2 e + a 3 e + a 4 e + a 1 e + a 2 e + a 3 e + a 4 e + a
         ---3---         ---3---         ---3---
|-------------------------------|-------------------------------|
|-------------------------------|-------------------------------|
|-------------------------------|-------------------------------| x1
|4-/-5-----------4-/-5----------|4-/-5-----------12------11-----|
|2-/-3---3--3--3-2-/-3---3--3--3|2-/-3---3--3--3-10------9------|
|-------------------------------|-------------------------------|
         .  .  .         .  .  .         .  .  . 




Riff 5a x 1

Riff 5b x 1

Riff 5a x 1

Riff 5c x 1




Solo II (2:50)
==============

Riff 6 (Rhythm)
 1 e + a 2 e + a 3 e + a 4 e + a 1 e + a 2 e + a 3 e + a 4 e + a
|-------------------------------|-------------------------------|
|-------------------------------|-------------------------------|
|-------------------------------|-------------------------------| x4
|-------------------------------|-------------------------------|
|2---2--------------------------|-------------------------------|
|0---0--------------------------|-------------------------------|




Bridge II (3:03)
================

Riff 7
 1 + 2 + 3 + 4 + 1 + 2 + 3 + 4 + 1 + 2 + 3 + 4 + 1 + 2 + 3 + 4 +
|---------------|---------------|---------------|---------------|
|---------------|---------------|---------------|---------------|
|--------0------|--------2---0--|--------0------|---------------| x4
|------------4--|----0----------|------------4--|----0-------1--|
|----2----------|---------------|----2----------|2-------3------|
|2--------------|3--------------|2--------------|---------------|




Main Riff (3:30)
================

Riff 1a x 1

Riff 1b x 1

Riff 1a x 1

Riff 1c x 1




Verse III (3:45)
================

Riff 1a x 1

Riff 1b x 1

Riff 1a x 1

Riff 1c x 1

Riff 1a x 1

Riff 1b x 1

Riff 1a x 1

Riff 1c x 1




Pre-Chorus III (4:15)
=====================

Riff 2a x 2

Riff 2b x 2

Riff 2a x 2

Riff 2b x 1

Riff 2c x 1




Chorus II (4:29)
================

Riff 3 x 4




Bridge III (4:56)
=================

Riff 4a x 1

Riff 4b x 1

Riff 4c x 1

Riff 4d x 1

Riff 4a x 1

Riff 4b x 1

Riff 4c x 1

Riff 4d x 1




Solo III (5:22)
===============

Riff 5a x 1

Riff 5b x 1

Riff 5a x 1

Riff 5c x 1

Riff 5a x 1

Riff 5b x 1

Riff 5a x 1

Riff 5c x 1




Ending Riff

 1 e + a 2 e + a 3 e + a 4 e + a
|-------------------------------|
|-------------------------------|
|-------------------------------| x1
|-------------------------------|
|2---2--------------------------|
|0---0--------------------------|




And that's it!




************************************

| /   slide up
| \   slide down
| h   hammer-on
| p   pull-off
| v   vibrato
|[ ]  harmonic
| •   mute note
| b   bend
| pb  pre-bend
| br  bend release
| pbr pre-bend release
| brb bend release bend

************************************
Добавлено: 21.11.2015
Другие материалы по этой песне:
  • Аккорды и текст

Страница создана 02.06.2012
http://primanota.ru/candlemass/black-eyes-chords.htm
Привет, Гость.
Предлагаем пройти революционный курс по гитаре.
Подарок от PrimaNota.Ru, забирай!