PrimaNota.ru - самый крупный в мире бесплатный архив песенных текстов, аккордов, табулатур и нот


Camel - Irish Air Instrumental Reprise - таба, видео

Регистрация Запомнить меня
Войти через:  Facebook Google Twitter Vk Yandex Mail.ru

Camel - Irish Air Instrumental Reprise - таба, видео

Печатать
Просмотров: 127
                                          Artist - Camel
                                         ****************
                              Song - Irish Air (Instrumental Reprise)
                             *****************************************            
                                     Album - Harbour Of Tears
                                    **************************


This is a harp? i think.
i,ve tried to figure out the chords for guitar.


Fm Ab Fm Cm Fm



00:27           C#                     Fm                  C#
[----------------s----|--------p---s-------|----------------s----11--]
[----------11--11\13--|--13--13-11-\9------|----------11--11\13------]
[--10--13-------------|----------------10--|--10--13-----------------]
[---------------------|--------------------|-------------------------]
[---------------------|--------------------|-------------------------]
[---------------------|--------------------|-------------------------]

               Fm                        C#                   Fm     Cm
[----h--p--p------s--|---------------s-------|--------p---s--------------]
[--13-14-13-11-13-\--|---s--------11-\13-13--|--13--13-11-\9-------------]
[--------------------|--7\10--13-------------|----------------10--8------]
[--------------------|-----------------------|-----------------------10--]
[--------------------|-----------------------|---------------------------]
[--------------------|-----------------------|---------------------------]

          Bbm               Fm
[-----------s-------p---s----------]
[--9--11--11\13---13-11-\9------s--]
[---------------------------10--\--]
[----------------------------------]
[----------------------------------]
[----------------------------------]


00:50
Whistle
Eb C# Ab C# Cm Bbm
Eb Ab
F# C#

01:12
   F#             C#        Ab          
Fade notes in with Volume pedal/guitar vol
[------------------------------------]
[--13---14---16---14-----------------]
[----------------------13------------]
[---------------------------15---13--]
[------------------------------------]
[------------------------------------]



01:21          C#                      Fm      b              C#       Fm
[----------------s----|--------p---s-------|--16--16--15--13---b--]
[----------11--11\13--|--13--13-11-\9------|------------------16--]
[--10--13-------------|----------------10--|----------------------]
[---------------------|--------------------|----------------------]
[---------------------|--------------------|----------------------]
[---------------------|--------------------|----------------------]
                 
                 C#      Bbm   Fm     Cm
[-----------------b-r-b--rb---------------]
[---s--------11--11-----11--9-------------]
[--7\10--13--------------------10--8------]
[-------------------------------------10--]
[-----------------------------------------]
[-----------------------------------------]

          C#         Bbm      C#         Fm   C#  Fm
[-----------s----------h--p---s----------------|----h--p-------------------]
[--9--11--11\13--13--11-13-11-\9----------h----|--13-16-13----s--hold note-]
[---------------------------------10--8--8-10--|------------15\17----------]
[----------------------------------------------|---------------------------]
[----------------------------------------------|---------------------------]
[----------------------------------------------|---------------------------]

Добавлено: 23.06.2013
Другие материалы по этой песне:
  • Аккорды и текст

Страница создана 23.06.2013
http://primanota.ru/camel/irish-air-instrumental-reprise-chords.htm
Привет, Гость.
Предлагаем пройти революционный курс по гитаре.
Подарок от PrimaNota.Ru, забирай!