PrimaNota.ru - самый крупный в мире бесплатный архив песенных текстов, аккордов, табулатур и нот


Camel - Lunar Sea - текст песни, таба, видео

Регистрация Запомнить меня
Войти через:  Facebook Google Twitter Vk Yandex Mail.ru

Camel - Lunar Sea - текст песни, таба, видео

Печатать
Просмотров: 173
Авторы музыки: Andrew Latimer, Peter Bardens

|-17~--15-13-15~---17~--15-13-12~---15h17~--15-13-15~---17~--15h17p15-13-12~-|
|----------------------------------------------------------------------------|
|----------------------------------------------------------------------------|
|----------------------------------------------------------------------------|
|----------------------------------------------------------------------------|
|----------------------------------------------------------------------------|

|----------------------------------------------------------|
|--13~--15-17-12~--/17-15~--13-----------------------------|
|------------------------------14-12----------------9------|
|-------------------------------------15-14-12~--10---12~--|
|----------------------------------------------------------|
|----------------------------------------------------------|

|-------------------------------------------------------------|
|-----------10-------------------------------------------13~--|
|--------12-------10-12----------12-12p10-------------12------|
|--10-12-------12-------12-10-------------12-10----10---------|
|-----------------------------10----------------10------------|
|-------------------------------------------------------------|

|-------------------------12~-------15~---18-------------------------------|
|--12h13p12-------------13----15-13----------16-15~--13-11-13~--12---------|
|-----------12--------14-------------------------------------------14-12~--|
|--------------14~-/15-----------------------------------------------------|
|--------------------------------------------------------------------------|
|--------------------------------------------------------------------------|

|-----------12-----------------------------------------------|
|-----12-13-----------13(15)13-12~---10h12p10-8-10-(12)10-8--|
|--14----------10~-------------------------------------------|
|------------------------------------------------------------|
|------------------------------------------------------------|
|------------------------------------------------------------|

|----------------------------------------------------------------------------|
|----------------------------------------------------------------------------|
|-11h12p11-9-11~p9/12--11~p9/12--11~p9/12--11~p9/12--11~p9/12--11~p9/12--11~-|
|----------------------------------------------------------------------------|
|----------------------------------------------------------------------------|
|----------------------------------------------------------------------------|


Keyboard Solo:
Bass goes:
|----------------|
|-------5h7-5h7--| almost through
|--5--5----------| whole keyboard solo
|----------------|

D G D D  x4

F#m A G Em

D D D D

C C D D  x12

D C D C 

D C Bb C Dm

|--------------------------------------------------------|
|------------------6-5--------6~--5-6-8-5~---5-6-8-------|
|---------5-5~---7-----7-5~------------------------7-5~--|
|--------7-----------------------------------------------|
|--5~---8------------------------------------------------|
|--------------------------------------------------------|

|------------------------------------------------------------------|
|------------------------------------------------------------------|
|------8(10~)--8-7-8-7h8p7----7------------------------------------|
|--8~----------------------10---8----8--10/12-10-8----8~--10(12~)--|
|---------------------------------10---------------10--------------|
|------------------------------------------------------------------|

|----------------------------------------------------------------------------|
|----------------------------------------------------------------------------|
|----------------------------------15-13-12h13p12----------------------------|
|--12-13-13-13-13h15p13----12~---12--------------15-13-13p12--12h13p12-------|
|-----------------------15----------------------------------15--------15-13--|
|----------------------------------------------------------------------------|

|---------------------------------------------------------------------|
|-------------------15~--15-18--15h18p15----15------------------------|
|----------------------------------------14----14----(14)13-----------|
|-------------------------------------------------15--------15p12h15--|
|-----13-15(17)15-----------------------------------------------------|
|--15-----------------------------------------------------------------|

|----------------------------------------------------------------------------|
|----------------------------------------------------------------------------|
|-12p10----------------------------10-10(12)-10----------10-12(14)12-10--10~-|
|------14p12p10---------------10h12--------------12-10h12--------------12----|
|--------------12p10-----10h12-----------------------------------------------|
|-------------------13p10----------------------------------------------------|

|-------------------------------------------------------|
|-------------------------------------------------------|
|-------------10----------9-10p9----10h12-10-9-10p9-----|
|--10h11h12p0----12-10h12--------12-----------------12--|
|-------------------------------------------------------|
|-------------------------------------------------------|

|--------------------------------------------------------|
|--------------------------------------------------------|
|--9h10p9--------------------------------------------9~--|
|--------12p10---------------------10-12-14p12-10h12-----|
|-------------12p10-12p10-----10/12----------------------|
|------------------------13p10---------------------------|

|------------------------------------------------------------------|
|---------------------------------13~---11-13(15)-13~---11-13(15)--|
|--9-10p9-12p9-10p9-10p9----9~--------12--------------12-----------|
|------------------------12----------------------------------------|
|------------------------------------------------------------------|
|------------------------------------------------------------------|

|-----------------------------------------------------------------------|
|--13~---11-13(15)-13~---11-13(15)-13~----------------------------------|
|------12--------------12-----------------------------------------------|
|----------------------------------------10~---8-10(12)-10~---8-10(12)--|
|--------------------------------------------10-------------10----------|
|-----------------------------------------------------------------------|

|----------------------------------------------------------------------|
|---------------------------------------------6-8-----6-8--------------|
|---------------------------------------7h9~------9~------9~--10p9p7~--|
|--10~---8-10(12)-10~---8-10(12)-10~-----------------------------------|
|------10-------------10-----------------------------------------------|
|----------------------------------------------------------------------|

|------------------------------------------------------------|
|------------------------------------------------------------|
|--------------9~--9-9h10-9~--h10p9p7~----------------0------|
|--10~-------10----------------------------------------------|
|-------10h12------------------------------------8p6h8-8h10--|
|-----------------------------------------11p8h11------------|

|-------------------------------------------------------------11(13)--|
|------------------------------------------11\8h11-13p11h13p11--------|
|--------------------------10\8h10-12p10h12---------------------------|
|--10p7h10-10p8h10-13p10h13-------------------------------------------|
|---------------------------------------------------------------------|
|---------------------------------------------------------------------|

|-11--11---------------------------------------------------------------------|
|---13--13p11--11--10--------------------------------------------------------|
|------------12--12--12-----------------------------------------------10(12)-|
|----------------------13p12-10------------------10-13(15)-13-10h13-10-------|
|------------------------------13-10--------10h13----------------------------|
|-----------------------------------13p11h13---------------------------------|

|----------------------------------------------------------|
|----11--10-----------------------------------------13-13--|
|--12--12--12-10h12--------------------10-10(12)10---------|
|------------------13p12-10-----10-13-------------13-------|
|--------------------------13-13---------------------------|
|----------------------------------------------------------|

|------11/13-13(15)-11-------11/----16(17~)-15-13-15-12~--13-15-17-15-13-12~-|
|-11h13----------------13-13-------------------------------------------------|
|----------------------------------------------------------------------------|
|----------------------------------------------------------------------------|
|----------------------------------------------------------------------------|
|----------------------------------------------------------------------------|

|--13-10/12~---13-15---------13-15--------------------------------|
|--------------------15(17~)-------15(17)-13-15(17)-13/15-15-13~--|
|-----------------------------------------------------------------|
|-----------------------------------------------------------------|
|-----------------------------------------------------------------|
|-----------------------------------------------------------------|

|--11-10-------------------------------------------------------|
|--------13---11-10--------------------------------------------|
|----------12-------12-10--------------------------------8-----|
|-------------------------13-12-10------------------8h10---10--|
|----------------------------------13--------8-8h10------------|
|-------------------------------------\13-11-------------------|

|---------------8----------------------------------------------------------|
|------8-11p8h11---11p8-10p8-----------------------------------------------|
|--8h10---------------------10-8-----------------------8\7---8-10-10(12~)--|
|-------------------------------10p8---------------8h10---10---------------|
|-----------------------------------10p8-------8h10------------------------|
|---------------------------------------11p8h11----------------------------|

                             
x 8    |:       
x3       
|       
x2        :|
|------------------------|-----------|-------------------|-------------------|
|-11p8--8----------------|-----------|-------------------|-------------------|
|-----10-10-8------------|---7--7----|---7-5-------------|-------------------|
|------------10-8--------|-----------|--7-7------10----7-|---8-6-------------|
|----------------10p8----|-5--5----5-|-5-----8h10--8-10--|--8-8------11----8-|
|--------------------11~-|-------8---|-------------------|-6-----9h11--9-11--|

------------------------------------------------------------------------------

7~ sustain longer then other notes
7h9     hammer on
9p7 pull off
7/9 slide up
9\7 slide down
7(9) bend
Добавлено: 25.04.2012
Другие материалы по этой песне:

Страница создана 25.04.2012
http://primanota.ru/camel/lunar-sea-chords.htm
Привет, Гость.
Предлагаем пройти революционный курс по гитаре.
Подарок от PrimaNota.Ru, забирай!