PrimaNota.ru - самый крупный в мире бесплатный архив песенных текстов, аккордов, табулатур и нот


Camel - End Peace - таба

Регистрация Запомнить меня
Войти через:  Facebook Google Twitter Vk Yandex Mail.ru

Camel - End Peace - таба

Печатать
Просмотров: 87
Авторы: Anthony Phillips
Авторы музыки: Andrew Latimer

                                          Artist - Camel
                                         ****************
                                         Song - End Peace
                                        ******************
                                      Album - Single Factor
                                     ***********************
                                       Tabbed By - Ayreon77
                                      **********************


                          s
[----9-8----|---p-----|--9/11------|---------------|---h----h-----]
[--9-----9--|--7-6----|------------|---------------|--6-7--6-7-6--]
[-----------|------6--|--------10--|----s----h-p---|--------------]
[-----------|---------|------------|--6-/8--6-8-6--|--------------]
[-----------|---------|------------|---------------|--------------]
[-----------|---------|------------|---------------|--------------]


00:18                     s   b   br
[--------6--|--8-9-8--|--9/11-11--11--|--9-8-9--]
[--6-7-9----|---------|---------------|---------]
[-----------|---------|---------------|---------]
[-----------|---------|---------------|---------]
[-----------|---------|---------------|---------]
[-----------|---------|---------------|---------]


00:30                                        s
[-----14-----------|----9-8----|---p-----|--9/11------|-------------------]
[------------------|--9-----9--|--7-6----|------------|-------------s-----]
[--13----15-13-10--|-----------|------6--|--------10--|------------6/8-5--]
[------------------|-----------|---------|------------|------3-4-6--------]
[------------------|-----------|---------|------------|--4-6--------------]
[------------------|-----------|---------|------------|-------------------]

                                                                      hold
00:49                                  s     h                    b   b  b
[-------h-----|--------6--|--8-9-8--|-9/11-11-12--11-12-14--12-14-14-14-14-]
[-6-7--6-7-6--|--6-7-9----|---------|--------------------------------------]
[-------------|-----------|---------|--------------------------------------]
[-------------|-----------|---------|--------------------------------------]
[-------------|-----------|---------|--------------------------------------]
[-------------|-----------|---------|--------------------------------------]


01:07      b              h      h      h     h     h
[--13--13-16--16-16--|--14-16--13-14--11-13--9-11--8-9-9--]
[--------------------|------------------------------------]
[--------------------|------------------------------------]
[--------------------|------------------------------------]
[--------------------|------------------------------------]
[--------------------|------------------------------------]



[--6-b--|-------------|------------------|---------|---------]
[----9--|--9-7-b-6-b--|--9-6--b--6---br--|--6-7-9--|--7-6-6--]
[-------|------8---8--|-------8----6-8---|---------|---------]
[-------|-------------|------------------|---------|---------]
[-------|-------------|------------------|---------|---------]
[-------|-------------|------------------|---------|---------]


01:28                         b                    b
[--------6--|--8-9-8--|--9-11-11--|--11-12-14--|--14--]
[--6-7-9----|---------|-----------|------------|------]
[-----------|---------|-----------|------------|------]
[-----------|---------|-----------|------------|------]
[-----------|---------|-----------|------------|------]
[-----------|---------|-----------|------------|------]


Use volume for notes
01:48
[-18-16---18-16---18-16---21-16--|-18-16--18-16--18-16--18-16--18-16--18-16]
[--------------------------------|-----------------------------------------]
[--------------------------------|-----------------------------------------]
[--------------------------------|-----------------------------------------]
[--------------------------------|-----------------------------------------]
[--------------------------------|-----------------------------------------]

02:12
[--16-13---14-13---14-13---14-13---13-14---13-14---13-14-repeat & fade out-]
[--------------------------------------------------------------------------]
[--------------------------------------------------------------------------]
[--------------------------------------------------------------------------]
[--------------------------------------------------------------------------]
[--------------------------------------------------------------------------]


Easy Camel Instrumental.
Добавлено: 01.08.2013
Вам также может быть интересно:
Другие материалы по этой песне:
  • Аккорды и текст

Страница создана 01.08.2013
http://primanota.ru/camel/end-peace-chords.htm
Привет, Гость.
Предлагаем пройти революционный курс по гитаре.
Подарок от PrimaNota.Ru, забирай!