PrimaNota.ru - самый крупный в мире бесплатный архив песенных текстов, аккордов, табулатур и нот


Camel - Snow Goose - таба, видео

Регистрация Запомнить меня
Войти через:  Facebook Google Twitter Vk Yandex Mail.ru

Camel - Snow Goose - таба, видео

Печатать
Просмотров: 218
Уроки эстрадного вокала в Санкт-Петербурге
Авторы музыки: Andrew Latimer, Peter Bardens

Camel - (1975) The Snow Goose - 06 - The Snow Goose

/ = slide
b = bend
h = hammer on
p = pull off
~ - vibrato

(00:00)
                                                         
E||----------------------------|------------------------|
B||----------------------------|------------------------|
G||----------------------------|--6/9--6----------------|
D||--9---------7--6------------|--------------6/9--7----|
A||--------------------7--7----|------------------------|
E||----------------------------|------------------------|

(00:13)

------------------------|--------------------------|
--9--------7p6h7--------|--11--------9p8h9---------|
------------------------|--------------------------|
------------------------|--------------------------|
------------------------|--------------------------|

(00:21)

----------------------------|------------------------|
----------------------------|------------------------|
----------------------------|--6/9--6----------------|
--9---------7--6------------|--------------6/9--7----|
--------------------7--7----|------------------------|
----------------------------|------------------------|

(00:31)
                                                     
------------------------|--------------------------|
--9--------7p6h7--------|--11--------9p8h9---------|
------------------------|--------------------------|
------------------------|--------------------------|
------------------------|--------------------------|
------------------------|--------------------------|

(00:38)
                                                                
------------------------------|--------------------------------|
------------------------------|-----------------------9--------|
--6--------7--7/9-------------|------9--------7----6-----------|
---------------------7--------|--------------------------------|
------------------------------|--------------------------------|
------------------------------|--------------------------------|

(00:51)
                                                                   
---------------------------------|--------------------------------|
---------------------------------|-----------------------9--------|
--6--------7--7/9----------------|------9--------7----6-----------|
---------------------7--7~-------|--------------------------------|
---------------------------------|--------------------------------|
---------------------------------|--------------------------------|

(01:02)
                                                                   
-------------------12b---12~-------|------------------------------|
--9/-11--13~-----------------------|--14--15--14--12--------------|
-----------------------------------|--------------------14--------|
-----------------------------------|------------------------------|
-----------------------------------|------------------------------|
-----------------------------------|------------------------------|

(01:11)
                                                              
------------------------------|------------------------------|
--14--15--14--12--------------|--14--15--14--12--------------|
--------------------14--------|--------------------14--------|
------------------------------|------------------------------|
------------------------------|------------------------------|
------------------------------|------------------------------|

(01:17)
                                                                         
------------------------------|----------|------------------------------|
--14--------15p-14------------|----------|------------------------------|
--------------------14--------|----------|--6--------7--7/9-------------|
------------------------------|----------|---------------------7--------|
------------------------------|----------|------------------------------|
------------------------------|----------|------------------------------|

(01:27)
                                                             
--------------------------------|---------------------------|
-----------------------9--------|---------------------------|
------9--------7----6-----------|--6--------7--9------------|
--------------------------------|-------------------7--7----|
--------------------------------|---------------------------|
--------------------------------|---------------------------|

(01:38)
                                                                       
----------------------------------|-------------------12b---12~-------|
-------------------------9--------|--9/-11--13~-----------------------|
--11----9--9--------6-------------|-----------------------------------|
----------------------------------|-----------------------------------|
----------------------------------|-----------------------------------|
----------------------------------|-----------------------------------|

(01:50)
                                                              
------------------------------|------------------------------|
--14--15--14--12--------------|--14--15--14--12--------------|
--------------------14--------|--------------------14--------|
------------------------------|------------------------------|
------------------------------|------------------------------|
------------------------------|------------------------------|

(01:56)
                                                          
------------------------------|--------------------------|
--14--15--14--12--------------|--14----------------------|
--------------------14--------|------------14--14--------|
------------------------------|--------------------------|
------------------------------|--------------------------|
------------------------------|--------------------------|

(02:03)
                                                                              
---------------------------|--------------------|------------------------------|
---------------------------|--------------------|------------------------------|
---------------------------|--9b-------9--------|--7--6--6--------6--6b--------|
--9-------9h11--9----9/7---|--------------------|-------------------------7-9--|
---------------------------|--------------------|------------------------------|
---------------------------|--------------------|------------------------------|

(02:17)
                                                                              
---------------------------|--------------------|----------------|
---------------------------|--------------------|--9h10-7--------|
---------------------------|--9b-------9--------|----------------|
--9-------9h11--9----9/7---|--------------------|----------------|
---------------------------|--------------------|----------------|
---------------------------|--------------------|----------------|

(02:25)
                                                                   
--------------------|-----------|---------------------------------|
--5--------3--------|-----------|---------------------------------|
--------------------|--2--------|--6--------7--7/9----------------|
--------------------|-----------|---------------------7-----------|
--------------------|-----------|---------------------------------|
--------------------|-----------|---------------------------------|

(02:34)
                                                                     
--------------------------------|
-----------------------9--------|
------9--------7----6-----------|
--------------------------------|
--------------------------------|
--------------------------------|

(02:40)

---------------------------------|
---------------------------------|
--6--------7--7/9----------------|
---------------------7-7---------|
---------------------------------|
---------------------------------|

(02:45)

--------------------------------|-------------------12b---12~-------|
-----------------------9--------|--9/-11--13~-----------------------|
------9--------7----6-----------|-----------------------------------|
--------------------------------|-----------------------------------|
--------------------------------|-----------------------------------|
--------------------------------|-----------------------------------|

(02:56)
                                                              
------------------------------|------------------------------|
--14--15--14--12--------------|--14--15--14--14b-------------|
--------------------14--------|--------------------14--------|
------------------------------|------------------------------|
------------------------------|------------------------------|
------------------------------|------------------------------|

(03:03)
                                                               
------------------------------|------------------------------||
--14--15--14--12--------------|--14--------15p-14------------||
--------------------14--------|--------------------14--------||
------------------------------|------------------------------||
------------------------------|------------------------------||
------------------------------|------------------------------||


Добавлено: 15.04.2012
Другие материалы по этой песне:

Страница создана 15.04.2012
http://primanota.ru/camel/snow-goose-chords.htm
Привет, Гость.
Предлагаем пройти революционный курс по гитаре.
Подарок от PrimaNota.Ru, забирай!