PrimaNota.ru - самый крупный в мире бесплатный архив песенных текстов, аккордов, табулатур и нот


Camel - Harbour Of Tears - текст песни, таба, видео

Регистрация Запомнить меня
Войти через:  Facebook Google Twitter Vk Yandex Mail.ru

Camel - Harbour Of Tears - текст песни, таба, видео

Печатать
Просмотров: 235
Уроки эстрадного вокала в Санкт-Петербурге
                                          Artist - Camel
                                         ****************
                                      Song - Harbour Of Tears
                                     *************************
                                      Album - Harbour Of Tears
                                     **************************

Intro
******
Fm C# Fm C#


VERSE 1
********
Fm   C#           Fm         C#
I am one of seven brothers.
Fm              C#              Fm     C#
Five of us must leave and start again.
Fm      C#                 Fm       C#
In this land of Saints and Martyrs,
Fm               C#              Fm    C#  
Tears of sadness hide within the rain.



CHORUS
*******
Eb           Cm    Fm   Cm  C#
So fare thee well, Remember me...
              Eb         Fm    C#
Sail from the Harbour of Tears



Fm C# Fm C#



VERSE 2
********
Fm    C#             Fm       C#
I can hear my father calling
Fm                C#               Fm    C#
Godspeed, my son, wherever you may go'
Fm           C#                Fm        C#
He looked so small down on the quayside.
Fm                 C#           Fm    C#
A man I guess I'll never really know.


REPEAT CHORUS
**************


Solo
*****
Use volume/guitar vol for these notes *
    *    *
[---b-----b--*----------------------|---b---rb-----------------------]
[--19---16----b---------brb--brp--b-|--16--16--13----13------s-------]
[-----------15------13-15---15--13--|-------------15----13-15\17-17--]
[----------------15-----------------|--------------------------------]
[-----------------------------------|--------------------------------]
[-----------------------------------|--------------------------------]

    b
[--16--16-15-14---b-16--b--r-------------------|---------|-----------------]
[----------------16----16----13--b--13-16--b-r-|---------|---br-p----------]
[-------------------------------15--------15---|---------|--15---13----p---]
[----------------------------------------------|--15-13--|----------15--13-]
[----------------------------------------------|---------|-----------------]
[----------------------------------------------|---------|-----------------]


02:24
[--------------------------|-----------------------|---------------------]
[-------------br-p---------|--13----------------b--|---------------------]
[------------15---13----s--|------15-15-15--13-15--|--13-13-13-13-12-----]
[----s---13----------15-\--|-----------------------|-----------------13--]
[--13\15-------------------|-----------------------|---------------------]
[--------------------------|-----------------------|---------------------]


[-------h--b-------------------|-------------------|---------------------]
[-----13-16---16-14-13---rb-b--|-------h-----------|------------b--------]
[-----------------------15-----|--13-13-15--13-----|-----------13--------]
[--13--------------------------|---------------15--|----s---15----15-15--]
[------------------------------|-------------------|--13\15--------------]
[------------------------------|-------------------|---------------------]


[----------*--*---*---*---*----*---*---*--]
[---br-----br----16--14--16---16--14--16--]
[--15-13--15-13---------------------------]
[-----------------------------------------]
[-----------------------------------------]
[-----------------------------------------]
Добавлено: 12.10.2013
Другие материалы по этой песне:
  • Аккорды и текст

Страница создана 05.05.2012
http://primanota.ru/camel/harbour-of-tears-chords.htm
Привет, Гость.
Предлагаем пройти революционный курс по гитаре.
Подарок от PrimaNota.Ru, забирай!