PrimaNota.ru - самый крупный в мире бесплатный архив песенных текстов, аккордов, табулатур и нот


Camel - Lies - текст песни, таба, видео

Регистрация Запомнить меня
Войти через:  Facebook Google Twitter Vk Yandex Mail.ru

Camel - Lies - текст песни, таба, видео

Печатать
Просмотров: 80
Уроки эстрадного вокала в Санкт-Петербурге
---------------------------------------------------------------------------------------------------------------
                                          Artist - Camel 
                                         ****************
                                           Song - Lies 
                                          *************
                                           Album - Nude   
                                          **************
                                       Tabbed By - Ayreon77
                                      **********************
---------------------------------------------------------------------------------------------------------------
Tuning = Standard
 

INTRO
******
[-------|-b--r-|-b--h----|---6-b-------------------]
[--h----|-4----|-6-4-6-4-|-----6-4-6---4--------s--]
[-3-5-3-|------|---------|-5---------5----s----3\5-]
[-------|------|---------|---------------8\5-1-----]
[-------|------|---------|-------------------------]
[-------|------|---------|-------------------------]

----------------------------------------------------------
VERSE 1
********
Tell me no lies,
has peace arrived

[-6--b-----]
[----6-4-6-]
[----------]
[----------]
[----------]
[----------]

Or, is this some kind of joke
                  hold
                    |
[-8-6-8-|-11-10-----b--11----]
[-------|-------11-13-----13-]
[-------|--------------------]
[-------|--------------------]
[-------|--------------------]
[-------|--------------------]

----------------------------------------------------------
VERSE 2
********
What a surprise,
you don't realise
   b
[-13-11-13-11----s-]
[-------------13-\-]
[------------------]
[------------------]
[------------------]
[------------------]

There's some things you don't own.

[-11----10----|--b-------------]
[----13----13-|-11-11-8----8---]
[-------------|---------10---8-]
[-------------|----------------]
[-------------|----------------]
[-------------|----------------]
                                                  
----------------------------------------------------------
 Guitar 1                                             
[-b---------b------s--3----h---------]
[-4-4-------4--4--4\----4-4-6----h---]
[------1-1--------------------3-3-5--]
[------------------------------------]
[------------------------------------]
[------------------------------------]
|                                    |
|Guitar 2                            |
| b         b      s                 |
[11-11-----11-11-11\-15--11-13-----b-]
[------9-9---------------------11-11-]
[------------------------------------]
[------------------------------------]
[------------------------------------]
[------------------------------------]

                   Hold    
                   b |rp  
[-b------h-------|-6-6--3-6-3-b-|-3---------]
[-6-4-4-4-6----4-|------------6-|---6-4-6---]
[------------3---|--------------|---------5-]
[----------------|--------------|-----------]
[----------------|--------------|-----------]
[----------------|--------------|-----------]


----------------------------------------------------------
VERSE 3
********
Can you disguise,
can you simplify

[-----|--p-----------]
[-----|-4-3----------]
[-3-5-|-----5-3--5---]
[-----|------------3-]
[-----|--------------]
[-----|--------------]

This change you put me through
          
[----h--b-PH---------b----h-----s-]
[-11--13--11-13--11-13--11-13-13\-]
[---------------------------------]
[---------------------------------]
[---------------------------------]
[---------------------------------]

----------------------------------------------------------
VERSE 4
********
Can you revive,
and will I survive
                
[--p----|-3----]
[-4-3---|--4---]
[-----5-|----5-]
[-------|------]
[-------|------]
[-------|------]

This life you've brought me to
  b                     p
[-6--brp------|-br-b-3-6-3---b-brp--]
[----6--4-6-4-|-4--6--------6--6--4-]
[-------------|---------------------]
[-------------|---------------------]
[-------------|---------------------]
[-------------|---------------------]

----------------------------------------------------------

 Guitar 1                                             
[-b---------b------s--3----h---------]
[-4-4-------4--4--4\----4-4-6----h---]
[------1-1--------------------3-3-5--]
[------------------------------------]
[------------------------------------]
[------------------------------------]
|                                    |
|Guitar 2                            |
| b         b      s                 |
[11-11-----11-11-11\-15--11-13-----b-]
[------9-9---------------------11-11-]
[------------------------------------]
[------------------------------------]
[------------------------------------]
[------------------------------------]

----------------------------------------------------------
KEYBOARDS
**********
----------------------------------------------------------
02:48
[----rake---]
[-----b-----]
[-3-5-7-5-5-]
[----x------]
[-----------]
[-----------]


----------------------------------------------------------
VERSE 3
********
Can you disguise,
can you simplify

[-6-b-3---brp--|--------]
[---6---4-6--4-|--h--p--]
[--------------|-3-5--3-]
[--------------|--------]
[--------------|--------]
[--------------|--------]

This change you put me through

----------------------------------------------------------
03:01
SOLO
*****                  s                                               b   b 
[--b-------|--b-|--b-8-\-|--b--8--rb----brb----------------|----p----11---13-]
[-11~~~~~~-|-11-|-11-----|-11----11--8-11---8--brp---8---s-|-13--11----------]
[----------|----|--------|--------------------10--8----8-\-|-----------------]
[----------|----|--------|---------------------------------|-----------------]
[----------|----|--------|---------------------------------|-----------------]
[----------|----|--------|---------------------------------|-----------------]
Pinchy.........
    p     b       p          b    b      p    brp
[-13-11--13--11-13-11---p---11-|-11~~--11-8--10--8---brp-------------------------]
[---------------------13-11----|-------------------11---8--b-8--p----------------]
[------------------------------|--------------------------10---8-7---p-----------]
[------------------------------|-----------------------------------10-8---s------]
[------------------------------|----------------------------------------10\8-6-8-]
[------------------------------|-------------------------------------------------]

                                       03:36
[------------|------------------------|----11-8--------------|------rb-]
[------------|--b-8---b-8---rb--------|-11-------8-----11--8-|-11--11--]
[------8-----|-10---10-----10--8------|------------10--------|---------]
[--s------10-|-------------------10-8-|----------------------|---------]
[-8\10-------|------------------------|----------------------|---------]
[------------|------------------------|----------------------|---------]

03:42
fast part......................................
   b    p
[-11--11-8---8---p-----------------------------|-----------]
[----------8---11-8--brp-----8--s--------------|-----------]
[-------------------10--8-10---8\7---p---------|------8----]
[----------------------------------10-8---s----|---s----10-]
[---------------------------------------10\8-6-|-10\8------]
[----------------------------------------------|-----------]


[---------------------------------|--------------|-----------------------------]
[--b-8--br------------------------|-------s--s-s-|-----b---rbp----p-s----------]
[-10---10--8-------------------br-|------8\10/8\-|----10--10--8-10-8\7---------]
[------------10---s-s----8-10-10--|-8-10---------|-10------------------10-8-10-]
[---------------10\8/10-----------|--------------|-----------------------------]
[---------------------------------|--------------|-----------------------------]

03:58
[-------------------------------|--b----p-----------------------------------------]
[--b-11-rbp---b-rp--------p-----|-11--11-9---------h--p------h--p----h------------]
[-10----10-8-10---8-10-10--8----|----------12-13-12-13-12--10-12-10-8-10----------]
[----------------------------10-|-------------------------------------------12-10-]
[-------------------------------|----------------------------------------10-------]
[-------------------------------|-------------------------------------------------]

                 rake
[---------------|---8----8-------------------------|--------]
[---------PH----|--8--11----br-----8-----------b---|--b-8---]
[---h-------h---|-8--------10--8-8--------p---8----|-10---8-]
[-10-12---10-12-|-----------------------10-8----10-|--------]
[---------------|----------------------------------|--------]
[---------------|----------------------------------|--------]
04:13
 slow
 bend
[----b--------p---|---h---b--------b----h--s-]
[-13----11-13--11-|-11-13----11-13----11-13\-]
[-----------------|--------------------------]
[-----------------|--------------------------]
[-----------------|--------------------------]
[-----------------|--------------------------]

04:22
[---------------------------------------------------------------p--]
[-11~~~~-b-----p-----------------------------brp----p---b-8-8-11-8-]
[-------10-8-10-8---p---------------------8-10--8-10-8-10----------]
[-----------------10-8---p---h---s---8-10--------------------------]
[----------------------10-8-6-8-8\10-------------------------------]
[------------------------------------------------------------------]
        
                                            b    p   br
[---------------|---------|--------------|-11--11-8-10--8----|---h------]
[--b-----8----8-|-8-11--b-|-8--brp-------|----------------11-|-11-12-13-]
[-10~~-----10---|------10-|---10--8-10-8-|-------------------|----------]
[---------------|---------|--------------|-------------------|----------]
[---------------|---------|--------------|-------------------|----------]
[---------------|---------|--------------|-------------------|----------]

04:37
[-11--8---------------|----8--brp---6-----|-br--------]
[-------8--brp--------|-11---11--8----br--|-8-6-8-----]
[---------10--8--10-8-|---------------8-5-|-------8-6-]
[---------------------|-------------------|-----------]
[---------------------|-------------------|-----------]
[---------------------|-------------------|-----------]


----------------------------------------------------------
VERSE 1
********
Tell me no lies,
has peace arrived 
      b
[-8-8-8-]
[-------]
[-------]
[-------]
[-------]
[-------]

Or, is this some kind of joke

[----]
[--s-]
[-8\-]
[-8\-]
[-8\-]
[----]



ENJOY...........
Добавлено: 07.11.2015
Другие материалы по этой песне:
  • Аккорды и текст

Страница создана 23.05.2012
http://primanota.ru/camel/lies-chords.htm
Привет, Гость.
Предлагаем пройти революционный курс по гитаре.
Подарок от PrimaNota.Ru, забирай!