PrimaNota.ru - самый крупный в мире бесплатный архив песенных текстов, аккордов, табулатур и нот


Bush - Loneliness Is A Killer - таба, видео

Регистрация Запомнить меня
Войти через:  Facebook Google Twitter Vk Yandex Mail.ru

Bush - Loneliness Is A Killer - таба, видео

Печатать
Просмотров: 125
Уроки эстрадного вокала в Санкт-Петербурге
Author/Artist: Bush 
Title: Loneliness Is A Killer



Tuning (eb A D G B E), Straight pick.


----|----------------------------------|--|
----|----------------------------------|--|
----|----------------------------------|--|
----|----------------------------------|2x|
----|------------------------------5---|--|
----|-9-11\--8-9\--6-8\--4-6\--4-6-6---|--|


  Intro/Verse                                                               


----|-------------------------------------|--|
----|-------------------------------------|--|
----|-------------------------------------|--|
----|-------------------------------------|2x|
----|-------------------------19-19-20-21-|--|
----|-9-11\--8-9\--6-8\--4-6--------------|--|
                                                                   



----|----------------------------------|--|
----|----------------------------------|--|
----|----------------------------------|--|
----|----------------------------------|3x|
----|------------------------------5---|--|
----|-9-11\--8-9\--6-8\--4-6\--4-6-6---|--|
                                                                              



----|--------------------------|
----|--------------------------|
----|--------------------------|
----|--------------------------|
----|--------------------------|
----|-9-11\--8-9\--6-8\--4-6---|
                                                                              






----|-----------------------------|
----|-----------------------------|
----|-----------------------------|
----|-5---------------------------|
----|-5--5---5-10---7--7---7-12---|
----|-4----4---9----6----6---11---|


  Prechorus                                                                   







----|---------------------|--|
----|---------------------|--|
----|---------------------|--|
----|---------------------|--|
----|---------------------|--|
----|-4----1----4----1----|--|


  Chorus                    
                                            


----|---------------------------------------------|--|
----|---------------------------------------------|--|
----|----------17--------------17-----------------|--|
----|----17-21----21-17-----17----21-17----17-----|--|
----|-19-----------------19-------------19----19--|--|
----|---------------------------------------------|--|


  Chorus                                                                    








----|------------------------------------------------------------------
----|-10----10--8----------------10----10--10-----------------10----10-
----|-7-x-x-7-x-7----------------7-x-x-7-x-7------------------7-x-x-7--
----|-7-x-x-7-x-7----------------7-x-x-7-x-7------------------7-x-x-7--
----|------------------------------------------------------------------
----|-------------2-2-4-4-2-2-2----------------2-2-4-4-2-2-2-----------
            

  Bridge                                                                      


--------------------|-----------------------------|--|
---8----------------|-10----10--10----------------|--|
-x-7----------------|-7-x-x-7-x-7-----------------|--|
-x-7----------------|-7-x-x-7-x-7-----------------|--|
--------------------|-----------------------------|--|
-----2-2-4-4-2-2-2--|--------------2-2-4-4-2-2-2--|--|







                                                                              
----|-----------------|
----|-----------------|
----|-----------------|
----|-----------------|
----|-----------------|
----|-4---1---4---6---|


  Interlude                                                             


----|-------------------------------|--|
----|-------------------------------|--|
----|-19--17------17--16/17\16/17---|--|
----|---------21--------------------|--|
----|-------------------------------|--|
----|-------------------------------|--|


  Interlude 
Добавлено: 05.04.2015
Другие материалы по этой песне:
  • Аккорды и текст

Страница создана 05.04.2015
http://primanota.ru/bush/loneliness-is-a-killer-chords.htm
Привет, Гость.
Предлагаем пройти революционный курс по гитаре.
Подарок от PrimaNota.Ru, забирай!