PrimaNota.ru - самый крупный в мире бесплатный архив песенных текстов, аккордов, табулатур и нот


Bush - Man On The Run Album - таба, видео

Регистрация Запомнить меня
Войти через:  Facebook Google Twitter Vk Yandex Mail.ru

Bush - Man On The Run Album - таба, видео

Печатать
Просмотров: 50
Уроки эстрадного вокала в Санкт-Петербурге
Author/Artist: Bush
Title: Man On The Run Album


v vibrator
b bend 
r release bend
p pull off
h hammer on
/ slide up
\ slide down

Use back of pick unless stated otherwise (2014).
Album straight pick, middle.



Just Like My Other Sins


Tuning (eb ab db gb bb eb), Straight pick.



----|-----------------------------------------|--|-------------------------------------|--|
----|-----------------------------------------|--|-------------------------------------|--|
----|-----------------------------------------|--|-------------------------------------|--|
----|(15vvvv)---------------------------------|--|(20vv)-------------------------------|--|
----|-------------------------14/15-----13----|--|---------------------------15---15---|--|
----|-8--8------8------8----------------------|--|-6-6-----6-----6-----6---------------|--|


  Intro/Verse                                                                 




----|-----------------------------------------|--|------------------------------|
----|-----------------------------------------|--|------------------------------|
----|-----------------------------------------|--|-----------------15h17--------|
----|-----------------------------------------|--|-17p15-------------------17---|
----|-----------------------------------------|--|---------15h17----------------|
----|-8-------8---8------4------4--4-----6----|--|------------------------------|
                                                   Fill

  Chorus                                                                   


----|------------------------------------------------|--|----------------|
----|------------------------------------------------|--|----------------|
----|------------------------------------------------|--|----------------|
----|------------------------------------------------|--|----------------|
----|------------------------------------------------|--|-18-----13------|
----|-8-------8---8------4------4--4------6----1-----|--|----------------|
                                                       Fill                        




----|-------------------------------------------------------|--|----------------|--|
----|-------------------------------------------------------|--|----------------|--|
----|-------------------------------------------------------|--|---17-----------|--|
----|-------------------------------------------------------|--|----------------|--|
----|-------------------------------------------------------|--|----------15----|--|
----|-4---4--------11---11--------6---6--------2---2--------|--|----------------|--|


  Bridge                                                                      





----|-----------------|--|---------------------------|---------------------|
----|-----------------|--|---------------------------|---------------------|
----|-----------------|--|-----------------15h17-----|-17vvvvv-------------|
----|-----------------|--|-17p15---------------------|---------------------|
----|-----------------|--|---------15h17-------------|---------------------|
----|-8--8---8---8----|--|---------------------------|---------------------|


  Outro                         











Man On The Run


Tunings: (E A D G B E) / (c# A D f# a d) / (d A E A a c#) / (E e a d f# b)



----|---------------------------------------------------------------------|
----|---------------------------------------------------------------------|
----|---------------------------------------------------------------------|
----|-2----------2----------2----------2----------2-----------2-----------|
----|-2----10----2----10----2----12----2----10----2-----12----2-----10----|
----|------8----------8----------10---------8-----------10----------8-----|
  

  Intro/Verse 1                                                               




----|--------------------------------------------|--|---------|--|
----|--------------------------------------------|--|---------|--|
----|----------x--------------------x------------|--|-12/14---|--|
----|----------x-2-2--2-------------x------------|--|---------|4x|
----|-5--5---5---2-2--2----7--7---7---5-5--------|--|---------|--|
----|-3--3---3-------------5--5---5---3-3--3/5---|--|---------|--|
             u                    u
 
  Chorus                                                                      



----|-------------------------------------------------------|
----|-------------------------------------------------------|
----|-------------------------------------------------------|
----|-2----------2----------2----------2----------2---------|
----|-2----10----2----10----2----12----2----10----2----12---|
----|------8----------8----------10---------8----------10---|


  Verse 2                                                                     



----|---------|
----|-5-------|
----|-2-------|
----|-2-------|
----|-5-------|
----|---------|


  Bridge










The Only Way Out


Strum at the 22 fret.
* Play in relatively same position as tab.


Tuning (c# A D G B E), Down ~ 10%, (c#, D) Down ~ 20%
Live Tuning (D A D D D D), Down ~ 10%
Bedroom Tuning* (eb ab db gb bb eb)
Key: (E + D) -> (E + A) or (D + C#)




----|----------------------------------------------|
----|----------------------------------------------|
----|----------------------------------------------|
----|----------------------------------------------|
----|-------12----12-12----12----12----12-12-12-12-|
----|-13-13-13-13-13-13-13-13-13-13-13-13-13-13-13-|
    
                                                                          
  Intro                                                                    



----|-------------------------------------------------------------------------------------------|
----|-------------------------------------------------------------------------------------------|
----|-------------------------------------------------------------------------------------------|
----|-------------------------------------------------------------------------------------------|
----|-------12----12-12----12----12----12-12-12-12-------9-----9--9-----9-----9-----9--9--9--9--|
----|-13-13-13-13-13-13-13-13-13-13-13-13-13-13-13-10-10-10-10-10-10-10-10-10-10-10-10-10-10-10-|
  

  Verse                                                                   



----|-----------------------------------------------------------------------------|
----|-----------------------------------------------------------------------------|
----|-----------------------------------------------------------------------------|
----|-----------------------------------------------------------------------------|
----|-----5---5-5---5---5---5-5-5-5-12-12-12-12-12-12-12-12-12-12-12-12-12-12-12--|
----|-6-6-6-6-6-6-6-6-6-6-6-6-6-6-6-13-13-13-13-13-13-13-13-13-13-13-13-13-13-13--|
                          

               
                                     
----|-------|--|
----|-7-----|--|
----|---7---|--|
----|-------|--|
----|-------|--|
----|-------|--|


 
                                                                   
----|---------|--|-------------|--|-------------|--|-------------|--|
----|---------|--|-------------|--|-------------|--|-------------|--|
----|---------|--|-------------|--|-------------|--|-------------|--|
----|---------|4x|-------------|4x|-------------|4x|-------------|4x|
----|-5-5-5-5-|--|-12-12-12-12-|--|-12-12-12-12-|--|-10-10-10-10-|--|
----|-6-6-6-6-|--|-13-13-13-13-|--|-15-15-15-15-|--|-13-13-13-13-|--|


  Chorus

                                                                             

----|-----------------------------------------------------------------|-------------|--|
----|-----------------------------------------------------------------|-------------|--|
----|-----------------------------------------------------------------|-------------|--|
----|-----------------------------------------------------------------|-------------|6x|
----|-----------------------------------------------------------------|-------------|--|
----|-6-6-6-6-6-6-6-6-10-10-10-10-10-10-10-10-13-13-13-13-13-13-13-13-|-11-11-11-11-|--|
  

  Bridge                                                                 


----|----------------------------------------------------------------------|
----|----------------------------------------------------------------------|
----|----------------------------------------------------------------------|
----|-------------------------------------17-19----------------17-\---7----|
----|---------------------------------21----------------19--21-------------|
----|----------------------------------------------------------------------|


   
                                                               
----|------------------------------------------------------------------------|
----|------------------------------------------------------------------------|
----|------------------------------------------------------------------------|
----|------------------------------------------------------------------------|
----|-12--------------------12-12-12-12-12-12-12-12-12-12-12-12-12-12-12-12--|
----|-13--------------------13-13-13-13-13-13-13-13-13-13-13-13-13-13-13-13--|
 

  Verse         









The Gift


Straight pick, between frets.
Tuning (eb A D G B E)



----|---------------------------------------------------------------------|
----|---------------------------------------------------------------------|
----|---------------------------------------------------------------------|
----|---------------------------------------------------------------------|
----|---------------------------------------------------------------------|
----|-3----6----5/6--6-6-6-6-6-6-6--3----3----3/11--11-11-11-11-11-11-11--|


  Verse/Intro                                                                 


----|-----------------------------------|--|
----|-----------------------------------|--|
----|-----------------------------------|--|
----|-----------------------------------|--|
----|-7-8-9---12-------4-3-2---12-------|--|
----|-----------------------------------|--|
                                                                              



----|----------------------------------|--|-----------------------------|
----|----------------------------------|--|-----------------------------|
----|----------------------------------|--|-------18vv-----18-----------|
----|----------------------------------|--|-19-20-------20--------------|
----|----------------------------------|--|-------------------21vv------|
----|-8--------6-----------3-----------|--|-----------------------------|
                                            Fill

  Prechorus                                                            



----|----------------------------------------------|--|---------------------|
----|----------------------------------------------|--|---------------------|
----|----------------------------------------------|--|---------------------|
----|----------------------------------------------|--|-18/19--17/18--------|
----|----------------------------------------------|--|---------------19vv--|
----|-10--------------8---------------3------------|--|---------------------|
                                                        Fill

  Chorus                                                                


----|----------------------------------------------|
----|----------------------------------------------|
----|----------------------------------------------|
----|-18vvvvv--------------------------------------|
----|----------------------------------------------|
----|----------------------------------------------|
                                                                              



----|-----------------------------------------------------|--|
----|-----------------------------------------------------|--|
----|-----------------------------------------------------|--|
----|-----------------------------------------------------|--|
----|---7-----------5------------2------------2-----------|--|
----|-8-----------6------------1------------1-------------|--|


  Bridge  











This House Is On Fire


* Play in relatively same position as tab.


Tuning (eb ab db gb bb eb), Palm mute top four strings.
Album Tuning (c# A D G B E), Down ~ 10%, (c#, D) Down ~ 20%
Live Tuning (D A D D D D), Down ~ 10%
Bedroom Tuning* (eb A D G B E), Palm mute top four strings. 
Key: (E + D) -> (E + A) or (D + C#)



----|-------------|--|--------------|--|
----|-------------|--|--------------|--|
----|-------------|--|--------------|--|
----|-------------|4x|--------------|4x|
----|-------------|--|--------------|--|
----|-8--8--8--8--|--|--6--6--6--6--|--|


  Intro


----|-----------------------------------------------------------------------------------------|
----|-----------------------------------------------------------------------------------------|
----|-19/20-----18/19-----19/20-----18/19----19/20--18/19-----19/20-----18/19-----19/20-------|
----|-----------------------------------------------------------------------------------------|
----|-----------------------------------------------------------------------------------------|
----|-----------------------------------------------------------------------------------------|




------------------------------|--|
------------------------------|--|
-18/19-----18/19---18/19-\----|--|
------------------------------|2x|
------------------------------|--|
------------------------------|--|









----|-------------|--|-----------------|--|
----|-------------|--|-----------------|--|
----|-------------|--|-----------------|--|
----|-------------|4x|-----------------|4x|
----|-------------|--|-----------------|--|
----|-8--8--8--8--|-/|-11--11--11--11--|--|


  Verse


----|----------------------|
----|--6------4------4-----|
----|--7------5------3-----|
----|--8------5------1-----|
----|--8------3------------|
----|----------------------|




----|-----------------|--|-----------------|--|-------------|--|-------------|--|
----|-----------------|--|-----------------|--|-------------|--|-------------|--|
----|-----------------|--|-----------------|--|-------------|--|-------------|--|
----|-----------------|4x|-----------------|4x|-------------|4x|-------------|4x|
----|-10--10--10--10--|--|-10--10--10--10--|--|-8--8--8--8--|--|-3--3--3--3--|--|
----|-10--10--10--10--|--|-8---8---8---8---|--|-8--8--8--8--|--|-3--3--3--3--|--|


  Chorus




----|-------------------------------------------------------------------------------------------------|--|
----|-------------------------------------------------------------------------------------------------|--|
----|-------------------------------------------------------------------------------------------------|--|
----|-------------------------------------------------------------------------------------------------|--|
----|-------------------------------------------------------------------------------------------------|--|
----|-6--6--6--6--6----6--6--6--4--4--4--4--6--6--6--3--3--3--3--3----10--10--10--8--8--8--8--8--8--8-|--|


  Bridge



----|--------------|
----|--11----------|
----|--10----------|
----|--8-----------|
----|--8-----------|
----|--------------|


  End








Loneliness Is A Killer


Tuning (eb A D G B E), Straight pick.



----|----------------------------------|--|
----|----------------------------------|--|
----|----------------------------------|--|
----|----------------------------------|2x|
----|------------------------------5---|--|
----|-9-11\--8-9\--6-8\--4-6\--4-6-6---|--|


  Intro/Verse                                                               


----|-------------------------------------|--|
----|-------------------------------------|--|
----|-------------------------------------|--|
----|-------------------------------------|2x|
----|-------------------------19-19-20-21-|--|
----|-9-11\--8-9\--6-8\--4-6--------------|--|
                                                                   



----|----------------------------------|--|
----|----------------------------------|--|
----|----------------------------------|--|
----|----------------------------------|3x|
----|------------------------------5---|--|
----|-9-11\--8-9\--6-8\--4-6\--4-6-6---|--|
                                                                              



----|--------------------------|
----|--------------------------|
----|--------------------------|
----|--------------------------|
----|--------------------------|
----|-9-11\--8-9\--6-8\--4-6---|
                                                                              



----|-----------------------------|
----|-----------------------------|
----|-----------------------------|
----|-5---------------------------|
----|-5--5---5-10---7--7---7-12---|
----|-4----4---9----6----6---11---|


  Prechorus                                                                   



----|---------------------|--|
----|---------------------|--|
----|---------------------|--|
----|---------------------|--|
----|---------------------|--|
----|-4----1----4----1----|--|


  Chorus                    
                                            


----|---------------------------------------------|--|
----|---------------------------------------------|--|
----|----------17--------------17-----------------|--|
----|----17-21----21-17-----17----21-17----17-----|--|
----|-19-----------------19-------------19----19--|--|
----|---------------------------------------------|--|


                                                                    

----|------------------------------------------------------------------
----|-10----10--8----------------10----10--10-----------------10----10-
----|-7-x-x-7-x-7----------------7-x-x-7-x-7------------------7-x-x-7--
----|-7-x-x-7-x-7----------------7-x-x-7-x-7------------------7-x-x-7--
----|------------------------------------------------------------------
----|-------------2-2-4-4-2-2-2----------------2-2-4-4-2-2-2-----------
            

  Bridge                                                                      


--------------------|-----------------------------|--|
---8----------------|-10----10--10----------------|--|
-x-7----------------|-7-x-x-7-x-7-----------------|--|
-x-7----------------|-7-x-x-7-x-7-----------------|--|
--------------------|-----------------------------|--|
-----2-2-4-4-2-2-2--|--------------2-2-4-4-2-2-2--|--|




                                                                              
----|-----------------|
----|-----------------|
----|-----------------|
----|-----------------|
----|-----------------|
----|-4---1---4---6---|


  Interlude                                                             



----|-------------------------------|--|
----|-------------------------------|--|
----|-19--17------17--16/17\16/17---|--|
----|---------21--------------------|--|
----|-------------------------------|--|
----|-------------------------------|--|


 







Bodies In Motion


Strum at the 22nd fret, straight pick.
Tuning (eb A D G B E)



----|-------------------------------|--|
----|-------------------------------|--|
----|-------------------------------|--|
----|-------------------------------|--|
----|-------------------------------|--|
----|-4-------------8---------------|--|


  Intro                
        
                                          
----|---------------------------------------------|--|
----|---------------------------------------------|--|
----|---------------------------------------------|--|
----|---------------------------------------------|--|
----|-17-17-17-17-17--17-16--14-14-14-14-14-14-14-|--|
----|---------------------------------------------|--|
                                                     


                     
----|-----------------------------|--|-----------------|
----|-----------------------------|--|-----------------|
----|-----------------------------|--|-----------------|
----|-----------------------------|--|-----------------|
----|-----------------------------|--|-21p19--17p14----|
----|-4--------------8------------|--|-----------------|


  Verse                                                                       



----|-------------------------------------|
----|-------------------------------------|
----|-------------------------------------|
----|-7------------5----------------------|
----|-7------------5-----------2----------|
----|-6------------4-----------8----------|


  Verse End                


                                                   
----|-----------------------------------------------------------------|
----|-----------------------------------------------------------------|
----|-----------------------------------------------------------------|
----|-----------------------------------------------------------------|
----|-----------------------------------------------------------------|
----|-1------------4------------6------------4---------8--------------|


  Chorus/Bridge Tremolo Pick                                                  


----|-----------------------------------------------------------------------|
----|-----------------------------------------------------------------------|
----|------------------------------------------------------------/-21-------|
----|-----------------17--------------19------------/--21-------------------|
----|-19----------21--------------------------------------------------------|
----|-----------------------------------------------------------------------|
  

  Tremolo Pick    
                                                            



----|-------------------------------------------------------------------------
----|-------------------------------------------------------------------------
----|-------------------------------------------------------------------21-19-
----|----17---21---17---21---17---21---17------17---21---17---21---17---------
----|-19------------------------------------19--------------------------------
----|-------------------------------------------------------------------------


  Bridge                                                                      


------------------------------------------------------------------------------
------------------------------------------------------------------------------
-------------------------------------------------------------------------21---
--21------17---21---17---19---17---21---17------17---21---17---19---17--------
-------19------------------------------------19-------------------------------
------------------------------------------------------------------------------
       
                                                                       

----------|
----------|
-19-------|
----21----|
----------|
----------|
                                

                                              

----|-----------------------------------------------------|
----|-----------------------------------------------------|
----|-----------------------------------------------------|
----|-7-----------5---------------------------------------|
----|-7-----------5------------2------------0-------------|
----|-6-----------4------------8------------6-------------|


  Break      









Broken In Paradise


Tuning (E A D G B E), Palm mute top four strings.
Album Tuning (c# A D G B E), Down ~ 10%, (c#, D) Down ~ 20%
Live Tuning (D A D D D D), Down ~ 10%
Key: (E + D) -> (E + A) or (D + C#)



----|---------------------------------------------------------------------|--|
----|---------------------------------------------------------------------|--|
----|---------------------------------------------------------------------|--|
----|-x-------------x-------------x-------------x-------------x-----------|--|
----|-x-------------x-------------x-------------x-------------x-----------|--|
----|-8-------------7-------------5-------------3-------------1-----------|--|


  Intro/Verse


----|---------------------------|--|------------------------------------|
----|----17-18-20---17br-br-----|--|------------------------------------|
----|-19------------------------|--|------------------------------------|
----|---------------------------|2x|-15----------------17v-----15v------|
----|---------------------------|--|------12---15-----------------------|
----|---------------------------|--|------------------------------------|



----|-------------------------------|--|--------------------------------------------------|
----|-17----------------------------|--|--------------------------------------------------|
----|---------17--------17----17----|--|-17--------------17----------17-------------------|
----|-------------17----------------|2x|-----17------17------17-----------------------19--|
----|-------------------------------|--|---------20--------------20------17/19\17---------|
----|-------------------------------|--|--------------------------------------------------|



--------------------------|
---------------17/18\17---|
---17----19---------------|
--------------------------|
--------------------------|
--------------------------|





----|-------------------------|
----|-------------------------|
----|-------------------------|
----|-7-------7---------------|
----|-7-------7-------5-------|
----|-----------------3-------|





----|---------------------------------------------------------------------------|
----|---------------------------------------------------------------------------|
----|-2---2---2---2---2---2---2---2---------------------2---2---2---2---2---2---|
----|-3---3---3---3---3---3---3---3---------------------3---3---3---3---3---3---|
----|-3---3---3---3---3---3---3---3---7---7-----5-------3---3---3---3---3---3---|
----|---------------------------------8---8-----3-------------------------------|


  Chorus


-----------------------------------------------------------------------------|
-----------------------------------------------------------------------------|
-2---2---------------------2---2---2---2---2---2---2---2---------------------|
-3---3---------------------3---3---3---3---3---3---3---3---------------------|
-3---3---7---7-----7-------3---3---3---3---3---3---3---3---7---7------5------|
---------8---8-----5---------------------------------------8---8------3------|





----|---------------------------|--|----------------------------------------|
----|---------------------------|--|----------------------------------------|
----|---------------------------|--|----------------------------------------|
----|---------------------------|--|----------------------------------------|
----|---------------------------|--|----------------------------------------|
----|-1------------8------------|--|-1------------8-------------5-----------|


  Bridge


----|---------------------------|--|
----|---------------------------|--|
----|---------------------------|--|
----|---------------------------|--|
----|---------------------------|--|
----|-5------------8------------|--|











Surrender


Strum in front of third pickup, straight pick.
Tuning (eb A D G B E)



----|-------------------------------------------------------------------------|
----|-------------------------------------------------------------------------|
----|-------------------------------------------------------------------------|
----|-------------------------------------------------------------------------|
----|-------------------------------------------------------------------------|
----|-11------11-------11-------11-------9-------9-------9-------9-------7----|


  Intro/Verse


-------------------------------------------------------------|--|
-------------------------------------------------------------|--|
-------------------------------------------------------------|--|
-------------------------------------------------------------|--|
-------------------------------------------------------------|--|
--7-------7--------7--------7--------7-------7-------7-------|--|



----|---------------------------------------|
----|---------------------------------------|
----|---------------------------------------|
----|-19------------------------------------|
----|----------20-------20--------20--------|
----|---------------------------------------|



----|-----------------------------------------------------------------------|
----|-----------------------------------------------------------------------|
----|-----------------------------------------------------------------------|
----|-19------17----------------17----------------17-----------------17-----|
----|------------------20----------------20-----------------20--------------|
----|-----------------------------------------------------------------------|




----|---------------------------------------------------|--|
----|---------------------------------------------------|--|
----|---------------------------------------------------|--|
----|-3-------------------------------------------------|--|
----|-3------------------------10-----------------------|--|
----|-2------------------------9------------------------|--|


  Chorus


----|-----------------------------------------------|--|
----|-----------------------------------------------|--|
----|-14----------12----------10----------9---------|--|
----|-----------------------------------------------|--|
----|-----------------------------------------------|--|
----|-----------------------------------------------|--|




----|-----------------------------------------------------------------------|
----|-----------------------------------------------------------------------|
----|--------------------------------------------------21br-19-17-----------|
----|-8--------------------------10--12/14-17-14-17-14----------------------|
----|-8-----------5-----------3----------------------------------3----------|
----|-------------6-----------4----------------------------------4----------|


  Bridge/Chorus Out              Fill









Dangerous Love


Strum over the first pickup.
Tuning (eb A D G B E)



----|---------|--|
----|---------|--|
----|---------|--|
----|---------|--|
----|-7-7-7-7-|--|
----|---------|--|


  Intro


----|-------------------------------------------------|
----|-------------------------------------------------|
----|-------------------------------------------------|
----|-------------------------------------------------|
----|-------------------------------------------------|
----|-1----------11----------6------------8-----------|



----|---------------------|--|
----|---------------------|--|
----|---------------------|--|
----|-16/17----16/17------|--|
----|---------------------|--|
----|---------------------|--|



----|-------------------------------------------------|
----|-------------------------------------------------|
----|-------------------------------------------------|
----|-------------------------------------------------|
----|-------------------------------------------------|
----|-1-----------11----------6-----------9-----------|


   Verse



----|-------------------------------------------------|
----|-------------------------------------------------|
----|-------------------------------------------------|
----|-------------------------------------------------|
----|-------------------------------------------------|
----|-11----------8-----------6------------3----------|


  Chorus



----|-------------------------------------------------|
----|-------------------------------------------------|
----|-------------------------------------------------|
----|-------------------------------------------------|
----|-10----------7-----------5------------3----------|
----|-11----------8-----------6------------4----------|


  Bridge



----|-------------------------------------------------|
----|-------------------------------------------------|
----|-------------------------------------------------|
----|-21----------19----------16-----------12---------|
----|-------------------------------------------------|
----|-------------------------------------------------|










Eye Of The Storm


Tuning (c# A D f# a d), Down ~ 10%, (c#, D) Down ~ 20%
Live Standard Tuning, Down ~ 10%
Key: (D + C#)



----|----------------------------------------------------------------------------------|--|
----|----------------------------------------------------------------------------------|--|
----|----------------------------------------------------------------------------------|--|
----|-0----12----7----0----14/16----0----12----7----0----14/16----0----12----7----0----|--|
----|----------------------------------------------------------------------------------|--|
----|----------------------------------------------------------------------------------|--|


  Intro/Verse


----|------------------------|
----|------------------------|
----|------------------------|
----|------------------------|
----|-5-----------5----------|
----|-8-----------6----------|





----|-------------------------------------------------------------------------|
----|-4-----4--------4--------4--------4--------4---5---5--------5--------5---|
----|-3--------3--------3--------3--------3---------3------3--------3---------|
----|-2-----------2--------2--------2--------2------0---------0--------0------|
----|-0-----------------------------------------------------------------------|
----|-------------------------------------------------------------------------|


  Prechorus


--------------------|--|
--------5--------5--|--|
--3--------3--------|--|
-----0--------0-----|--|
--------------------|--|
--------------------|--|





----|---------------------------------------------------------------------------------|
----|-5---------5---5-----------5-----4--------4-----------------5--------5-----------|
----|-3-------------5--------------3-----3--------3----------3------3--------3--------|
----|-0-------------5--------------2--------2--------2-------0---------0--------0-----|
----|---------------5--------------0-------------------------0------------------------|
----|---------------------------------------------------------------------------------|


  Chorus



----|-----|---------------------------------------|--|
----|-----|-20------------------------------------|--|
----|-----|-------18-----------(18)---------------|--|
----|-----|-------------20-----(19)-----19--------|--|
----|-----|---------------------------------------|--|
----|-4---|---------------------------------------|--|


  Bridge





Добавлено: 18.10.2015
Вам также может быть интересно:
Другие материалы по этой песне:
  • Аккорды и текст

Страница создана 18.10.2015
http://primanota.ru/bush/man-on-run-album-chords.htm
Привет, Гость.
Предлагаем пройти революционный курс по гитаре.
Подарок от PrimaNota.Ru, забирай!