PrimaNota.ru - самый крупный в мире бесплатный архив песенных текстов, аккордов, табулатур и нот


Bush - Surrender - таба, видео

Регистрация Запомнить меня
Войти через:  Facebook Google Twitter Vk Yandex Mail.ru

Bush - Surrender - таба, видео

Печатать
Просмотров: 31
Author/Artist: Bush
Title: Surrender


Strum in front of third pickup, straight pick.
Tuning (eb A D G B E)


----|-------------------------------------------------------------------------|
----|-------------------------------------------------------------------------|
----|-------------------------------------------------------------------------|
----|-------------------------------------------------------------------------|
----|-------------------------------------------------------------------------|
----|-11------11-------11-------11-------9-------9-------9-------9-------7----|


  Intro/Verse


-------------------------------------------------------------|--|
-------------------------------------------------------------|--|
-------------------------------------------------------------|--|
-------------------------------------------------------------|--|
-------------------------------------------------------------|--|
--7-------7--------7--------7--------7-------7-------7-------|--|




----|---------------------------------------|
----|---------------------------------------|
----|---------------------------------------|
----|-19------------------------------------|
----|----------20-------20--------20--------|
----|---------------------------------------|





----|-----------------------------------------------------------------------|
----|-----------------------------------------------------------------------|
----|-----------------------------------------------------------------------|
----|-19------17----------------17----------------17-----------------17-----|
----|------------------20----------------20-----------------20--------------|
----|-----------------------------------------------------------------------|




----|---------------------------------------------------|--|
----|---------------------------------------------------|--|
----|---------------------------------------------------|--|
----|-3-------------------------------------------------|--|
----|-3------------------------10-----------------------|--|
----|-2------------------------9------------------------|--|


  Chorus


----|-----------------------------------------------|--|
----|-----------------------------------------------|--|
----|-14----------12----------10----------9---------|--|
----|-----------------------------------------------|--|
----|-----------------------------------------------|--|
----|-----------------------------------------------|--|




----|-----------------------------------------------------------------------|
----|-----------------------------------------------------------------------|
----|--------------------------------------------------21br-19-17-----------|
----|-8--------------------------10--12/14-17-14-17-14----------------------|
----|-8-----------5-----------3----------------------------------3----------|
----|-------------6-----------4----------------------------------4----------|


  Bridge/Chorus Out              Fill
Добавлено: 18.10.2015
Другие материалы по этой песне:
  • Аккорды и текст

Страница создана 18.10.2015
http://primanota.ru/bush/surrender-chords.htm
Привет, Гость.
Предлагаем пройти революционный курс по гитаре.
Подарок от PrimaNota.Ru, забирай!