PrimaNota.ru - самый крупный в мире бесплатный архив песенных текстов, аккордов, табулатур и нот


Bush - This House Is On Fire - таба, видео

Регистрация Запомнить меня
Войти через:  Facebook Google Twitter Vk Yandex Mail.ru

Bush - This House Is On Fire - таба, видео

Печатать
Просмотров: 166
Author/Artist: Bush
Title: This House Is On Fire

* Play in relatively same position as tab.

Tuning (eb ab db gb bb eb), Palm mute top four strings.
Album Tuning (c# A D G B E), Down ~ 10%, (c#, D) Down ~ 20%
Live Tuning (D A D D D D), Down ~ 10%
Bedroom Tuning* (eb A D G B E), Palm mute top four strings. 
Key: (E + D) -> (E + A) or (D + C#)

----|-------------|--|--------------|--|
----|-------------|--|--------------|--|
----|-------------|--|--------------|--|
----|-------------|4x|--------------|4x|
----|-------------|--|--------------|--|
----|-8--8--8--8--|--|--6--6--6--6--|--|

  Intro


----|-----------------------------------------------------------------------------------------|
----|-----------------------------------------------------------------------------------------|
----|-19/20-----18/19-----19/20-----18/19----19/20--18/19-----19/20-----18/19-----19/20-------|
----|-----------------------------------------------------------------------------------------|
----|-----------------------------------------------------------------------------------------|
----|-----------------------------------------------------------------------------------------|


------------------------------|--|
------------------------------|--|
-18/19-----18/19---18/19-\----|--|
------------------------------|2x|
------------------------------|--|
------------------------------|--|




----|-------------|--|-----------------|--|
----|-------------|--|-----------------|--|
----|-------------|--|-----------------|--|
----|-------------|4x|-----------------|4x|
----|-------------|--|-----------------|--|
----|-8--8--8--8--|-/|-11--11--11--11--|--|

  Verse


----|----------------------|
----|--6------4------4-----|
----|--7------5------3-----|
----|--8------5------1-----|
----|--8------3------------|
----|----------------------|




----|-----------------|--|-----------------|--|-------------|--|-------------|--|
----|-----------------|--|-----------------|--|-------------|--|-------------|--|
----|-----------------|--|-----------------|--|-------------|--|-------------|--|
----|-----------------|4x|-----------------|4x|-------------|4x|-------------|4x|
----|-10--10--10--10--|--|-10--10--10--10--|--|-8--8--8--8--|--|-3--3--3--3--|--|
----|-10--10--10--10--|--|-8---8---8---8---|--|-8--8--8--8--|--|-3--3--3--3--|--|

  Chorus




----|-------------------------------------------------------------------------------------------------|--|
----|-------------------------------------------------------------------------------------------------|--|
----|-------------------------------------------------------------------------------------------------|--|
----|-------------------------------------------------------------------------------------------------|--|
----|-------------------------------------------------------------------------------------------------|--|
----|-6--6--6--6--6----6--6--6--4--4--4--4--6--6--6--3--3--3--3--3----10--10--10--8--8--8--8--8--8--8-|--|

  Bridge




----|--------------|
----|--11----------|
----|--10----------|
----|--8-----------|
----|--8-----------|
----|--------------|

  End
Добавлено: 05.04.2015
Другие материалы по этой песне:
  • Аккорды и текст

Страница создана 05.04.2015
http://primanota.ru/bush/this-house-is-on-fire-chords.htm
Привет, Гость.
Предлагаем пройти революционный курс по гитаре.
Подарок от PrimaNota.Ru, забирай!