PrimaNota.ru - самый крупный в мире бесплатный архив песенных текстов, аккордов, табулатур и нот


Burzum - Jesus Tod Jesu Dod - текст песни, таба, видео

Регистрация Запомнить меня
Войти через:  Facebook Google Twitter Vk Yandex Mail.ru

Burzum - Jesus Tod Jesu Dod - текст песни, таба, видео

Печатать
Просмотров: 773
Уроки эстрадного вокала в Санкт-Петербурге
Band:  Burzum
Album: Filosofem
Song: Jesus' Tod

Copyright (c)  Misanthropy Records
Version 1.0 - 30.9.2005

Transcribed By: Ville Nousiainen
Email:          blackened_81@hotmail.com

.  - palm mute           /  - slide up to
\  - slide down to       ~  - vibrato
h  - hammer on           b  - Bend
p  - pull off            Suffixes for bend
t  - tap                 f  - full bend    h - half bend
ph - pinched harmonic    q  - quarter bend t - tap bend
*  - see comment         ^  - Hold bend    r release bend
x  - Stuccatto           ~  - vibrato bend
,  - slight palm mute    () - ghost note, sustained note
"  - tremolo note        <> - Trill

Tuning E A D G B E


Fade in
|-----|
|-----|
|-----|
|-----|
|--7--|
|--0--|

Riff 1 x4
|-------------777---77--6666-----666-----------|
|----------888---888--88----77777---777--------|
|-------999----------------------------888-----|
|----999----------------------------------888--|
|-777------------------------------------------|
|----------------------------------------------|


Riff 2 x4   Gtr I 
|---------------------------------------------------|
|---------------------------------------------------|
|----------000222------------------000--------------|
|-------222------444000---------222-----------------|
|----222---------------222---222---------555---444--|
|-000---------------------000---------333---222-----|
|           Gtr II                                  |
|---------------------------------------------------|
|---------------------------------------------------|
|---------------------------------------------------|
|-2--------------4--------2-----------5-----4-------|
|-2--------------4--------2-----------5-----4-------|
|-0--------------2--------0-----------3-----2-------|

Fill
|-----|
|-----|
|-----|
|--2--|
|--2--|
|--0--|

Riff 3 x12
|-------------------------------------------|
|-------------------------------------------|
|-------------------------------------------|
|----9"-----10"-------9"-----9"-8"----8"----|
|-7"------------8"-7"--------------6"-------|
|-------------------------------------------|

Riff 4 x8   Gtr I
|-----------------------------------|
|----------8"--------------7"-------|
|-------9"---9"---------7"---7"-----|
|----9"---------9"---9"---------9"--|
|-7"---------------9"---------------|
|-----------------------------------|
|           Gtr II                  |
|-----------------------------------|
|-----------------------------------|
|-----------------------------------|
|-9"--------------------------------|
|-7"---------------9"---------------|
|------------------7"---------------|

Riff 3 x8
Riff 4 x32
Riff 3 x16

END
|-----|
|-----|
|-----|
|-----|
|--7--|
|--0--|
Добавлено: 06.05.2012
Другие материалы по этой песне:

Страница создана 17.04.2012
http://primanota.ru/burzum/jesus-tod-jesu-dod-chords.htm
Привет, Гость.
Предлагаем пройти революционный курс по гитаре.
Подарок от PrimaNota.Ru, забирай!