PrimaNota.ru - самый крупный в мире бесплатный архив песенных текстов, аккордов, табулатур и нот


Burzum - My Journey To The Stars - текст песни, таба, видео

Регистрация Запомнить меня
Войти через:  Facebook Google Twitter Vk Yandex Mail.ru

Burzum - My Journey To The Stars - текст песни, таба, видео

Печатать
Просмотров: 191
Авторы музыки: Count Grishnackh
Авторы текста: Count Grishnackh
-------------------------------------------------------------------------------
                             My Journey to The Stars - Burzum
-------------------------------------------------------------------------------
Tabbed by: James Blobb

Tuning: E Sharp (Maybe F)

************************************

| "   termolo note
| /   slide up
| \   slide down
| h   hammer-on
| p   pull-off
| ~   vibrato
| +   harmonic
| x   Mute note
| b   Bend
| pb  Pre-bend
| br  Bend release
| pbr Pre-bend release
| brb Bend release bend

************************************
Note: This is my first tab, so if it's shit: dont be suprised.

If you want the timing then litsen to the song!

Intro Riff 1
e|---------------------------------------------------------------------------|
B|---------------------------------------------------------------------------|
G|-----------5"------------------6"------------------------------------------|
D|------4"-------4"--5"------5"----------------------------------------------|
A|-3"--------------------4"--------------------------------------------------|
E|---------------------------------------------------------------------------|

Intro Riff 2
e|--------------------------------------------------------------------------------------|
B|--------------------------------------------------------------------------------------|
G|--------------------------------------------------------------------------------------|
D|2"-----5"--2"----5"--2"--2"-----5"--2"----5"--2"/5"-----8"--5"----8"--5"\4"-7"--4"----7"--4"-|
A|--------------------------------------------------------------------------------------|
E|--------------------------------------------------------------------------------------|

Intro Riff 2 (Guitar 2 and Bass)

e|-------------------------------------------------------------------------------------------------|
B|-------------------------------------------------------------------------------------------------|
G|-------------------------------------------------------------------------------------------------|
D|-------------------------------------------------------------------------------------------------|
A|-------------------------------------------------------------------------------------------------|
E|0----------------------------------------------3--------------------------2----------------------|

Intro Riff 3 
e|---------7"-8"-7"----7"-8"-7"----7"8"--------------------------------------|
B|------7"----------7"----------7"-------------------------------------------|
G|---5"----------------------------------------------------------------------|
D|3"-------------------------------------------------------------------------|
A|---------------------------------------------------------------------------|
E|---------------------------------------------------------------------------|

Riff 1
e|---------------------------------------------------------------------------|
B|---------------------------------------------------------------------------|
G|---------------------------------------------------------------------------|
D|2"----5"-2"---5"-2"/4"----7"-4"---7"-4"------------------------------------|
A|---------------------------------------------------------------------------|
E|---------------------------------------------------------------------------|

Riff 2
e|---------------------------------------------------------------------------|
B|---------------------------------------------------------------------------|
G|---------------------------------------------------------------------------|
D|---------------------------------------------------------------------------|
A|3"---5"--3"--5"--3"/5"--7"--5"--7"--"5-------------------------------------|
E|---------------------------------------------------------------------------|

Riff 3
e|---------------------------------------------------------------------------|
B|---------------------------------------------------------------------------|
G|---------------------------------------------------------------------------|
D|---------------------------------------------------------------------------|
A|-----2"-------------3"-----------------------------------------------------|
E|3"-------3"----5"--------5"------------------------------------------------|

Riff 4
e|---------------------------------------------------------------------------|
B|---------------------------------------------------------------------------|
G|---------------------------------------------------------------------------|
D|9"-------10"---9"--8"----9"--8"-----9"----5"----6"---6"----8"---6"---8"----|
A|7"-------7"----7"--7"----7"--6"-----7"----3"----3"---4"----4"---4"---4"----|
E|---------------------------------------------------------------------------|

Riff 4
e|---------------------------------------------------------------------------|
B|---------------------------------------------------------------------------|
G|----------5---------------------------------5------------------------------|
D|7--7--7-7---7-8--8--8/10\8--8--8--7--7--7-7---7--10-10-10\9--9-------------|
A|7--7--7-------8--8--8/10\8--8--8--7--7--7--------10-10-10\9--9-------------|
E|5--5--5-------6--6--6/8-\6--6--6--5--5--5--------8--8--8-\7--7-------------|

Riff 5
e|---------------------------------------------------------------------------|
B|---------------------------------------------------------------------------|
G|---------------------------------------------------------------------------|
D|-----2"--3"----------------------------------------------------------------|
A|0"-----------2"---3"--5"---------------------------------------------------|
E|---------------------------------------------------------------------------|

Riff 6
e|---------------------------------------------------------------------------|
B|---------------------------------------------------------------------------|
G|---------------------------------------------------------------------------|
D|--------2"/3"------/7"-------\1"-------------------------------------------|
A|2"-------------------------------------------------------------------------|
E|---------------------------------------------------------------------------|

Riff 7
e|---------------------------------------------------------------------------|
B|---------------------------------------------------------------------------|
G|---------------------------------------------------------------------------|
D|-----------2"--------------------------------------------------------------|
A|3"---------------------1"--------------------------------------------------|
E|---------------------------------------------------------------------------|

Riff 8 (play with Alt. picking on this riff)
e|---------------------------------------------------------------------------|
B|---------------------------------------------------------------------------|
G|---------------------------------------------------------------------------|
D|77777777\55555555\44444444\33333333----------------------------------------|
A|77777777\55555555\44444444\33333333----------------------------------------|
E|55555555\33333333\22222222\11111111----------------------------------------|

Riff 8 (Guitar 2)
e|----------------------------------------------------------------------------------------|
B|----------------------------------------------------------------------------------------|
G|3"-----5"---6"---5"---3"-----5"---6"---5"---3"-----5"---6"---5"---3"-----5"---6"---5"---|
D|----------------------------------------------------------------------------------------|
A|----------------------------------------------------------------------------------------|
E|----------------------------------------------------------------------------------------|

Riff 9
e|---------------------------------------------------------------------------|
B|---------------------------------------------------------------------------|
G|------------0--------------------------------------------------------------|
D|----2---------------2------------------------------------------------------|
A|--2---2---2-------2---2---2-3-3--------------------------------------------|
E|0-------0-------0-------0---1-1--------------------------------------------|

e|---------------------------------------------------------------------------|
B|---------------------------------------------------------------------------|
G|------------0--------------------------------------------------------------|
D|----2----------------4-------4---------------------------------------------|
A|--2---2---2--------4---4---4---4-------------------------------------------|
E|0-------0--------2-------2-------------------------------------------------|

Riff 10
e|---------------------------------------------------------------------------|
B|---------------------------------------------------------------------------|
G|---------------------------------------------------------------------------|
D|---------------------------------------------------------------------------|
A|2"---------------3---------------------------------------------------------|
E|0"---------------1---------------------------------------------------------|

Riff 11
e|---------------------------------------------------------------------------|
B|---------------------------------------------------------------------------|
G|---------------------------------------------------------------------------|
D|---------------------------------------------------------------------------|
A|--------4"----5"-----------------------------------------------------------|
E|2"-------------------------------------------------------------------------|
Добавлено: 10.06.2015
Другие материалы по этой песне:

Страница создана 06.06.2012
http://primanota.ru/burzum/my-journey-to-the-stars-chords.htm
Привет, Гость.
Предлагаем пройти революционный курс по гитаре.
Подарок от PrimaNota.Ru, забирай!