PrimaNota.ru - самый крупный в мире бесплатный архив песенных текстов, аккордов, табулатур и нот


Burzum - Valen - текст песни, таба, видео

Регистрация Запомнить меня
Войти через:  Facebook Google Twitter Vk Yandex Mail.ru

Burzum - Valen - текст песни, таба, видео

Печатать
Просмотров: 246
INTRO AND VERSE:

Guitar 1
e|-----|--------------|
b|-----|--------------|
g|-----|--------------|
d|--9--|------9/12-9--| x intro and verse
a|--7--|--7-7-7/10-7--|
E|-----|--------------|

Guitar 2
e|----------------------------------------------------------------------|
b|----------------------------------------------------------------------|
g|----0---0----0----0---0---0----0----0---0---0---0---0---0---0---0---0-|
d|---9---9---10---10---9---9---10---10---4---4---4---4---2---2---2---2--|
a|--7---7---7----7----7---7---7----7----7---7---5---5---3---3---3---3---|
E|----------------------------------------------------------------------|

CHORUS:

Guitar 1
e|---7-----7-----7-----10---|
b|---8-----7-----8-----10---|
g|---9-----7-----9-----12---|
d|---9-----9-----9-----12---|
a|---7-----7-----7-----10---|
E|--------------------------|

Guitar 2
e|-------------------------------------------------------------------|
b|---------------------7---7---7---7---------------------------------|
g|----0---0---0---0---7---7---7---7-----0---0---0---0---12-----12----|
d|---9---9---9---9---9---9---9---9-----9---9---9---9------12-----12--|
a|--7---7---7---7---------------------7---7---7---7---10-----10------|
E|-------------------------------------------------------------------|

-----------------|
-----------------|
----12-----12----|
------12-----12--|
--10-----10------|
-----------------|

After chorus
Guitar 1
e|--------------------|
b|--------8---------9-|
g|---9---9----9---10--|
d|--9---9----9--10----|
a|-7--------7---------|
E|--------------------|

Guitar 2
e|----------------------------------------------------|
b|----------------------------------------------------|
g|----------------------------------------------------|
d|--9-9-(X)-9-(X)(X)--9/12-9--9--10-10-10-10--10/12-9-|
a|--7-7--7--7--7--7---7/10-7--7---8--8--8--8---8/10-7-|
E|----------------------------------------------------|

And after that
Guitar 1
e|----------------------|
b|----------------------|
g|----------------------|
d|--------9------9/12-9-|
a|--7-7-7-7--7-7-7/10-7-|
E|----------------------|

Guitar 2
e|--------------------|
b|----8----------8----|
g|---9-9--------9-9---|
d|--9---9-----10---10-|
a|-7--------10--------|
E|--------------------|

Guitar 3
e|---------------------------------|
b|-7-7-7-7-7-7-7-7-7-7-7-7-7-7-7-x-|
g|---------------------------------|

Play intro again +

e|----------------|
b|----0------0----|
g|----0------0----|
d|--5------4------| let ring
a|----------------|
E|----------------|
Добавлено: 10.06.2015
Другие материалы по этой песне:

Страница создана 13.03.2012
http://primanota.ru/burzum/valen-chords.htm
Привет, Гость.
Предлагаем пройти революционный курс по гитаре.
Подарок от PrimaNota.Ru, забирай!