PrimaNota.ru - самый крупный в мире бесплатный архив песенных текстов, аккордов, табулатур и нот


Burzum - Jesu Dod - текст песни, таба, видео

Регистрация Запомнить меня
Войти через:  Facebook Google Twitter Vk Yandex Mail.ru

Burzum - Jesu Dod - текст песни, таба, видео

Печатать
Просмотров: 419
I have tabbed "Jesu død" off of "Filosofem". I have also posted it at www.metaltabs.com I don't know if it's up here. I also posted some other tabs at metaltabs like Satyricon, Emperor and stuff like that. I'm the one called Anders Pedersen.

BURZUM:
"Jesu Dod"

I think that Varg has a problem tuning his guitar right, as it always
sounds 1/4 out of tune or something. Tune up or tune down (your choice)

F5
Fade in

LICK A:
|-------------------8888--8888--77777777----7777--|
|-----------------99----99----99--------8888----88|
|1010101010101010---------------------------------|
|-------------------------------------------------|
|-------------------------------------------------|
|-------------------------------------------------|
ten, not one & zero

LICK B:

Chords by 2nd guitar:
Fminor            Gminor
|-------------------------------------------------
|-------------------------------------------------
|-------------------------------------------------
|-------------------------------------------------
|888888888888888810101010101010101010101010101010-   Continues...
|-------------------------------------------------
	         Ten, not one & zero



Fminor          G#minor          Gminor (End Lick B)
------------------------------------------------|
------------------------------------------------|
------------------------------------------------|
------------------------------------------------|
888888888888888811111111111111111010101010101010|
------------------------------------------------|
                 elleven's       Ten's


RIFF A :
|-------------------------------------
|-------------------------------------
|----55555555555555555555555566661111-
|3333---------------------------------
|-------------------------------------
|-------------------------------------
			   (End Riff A)
-------------------------------------|
-------------------------------------|
----555555555555555555554444411114444|
3333---------------------------------|
-------------------------------------|
-------------------------------------|


RIFF B:
|--------------------------------|----------------------------|
|--------------------------------|----------------------------|
|----------------5555555566665555|----------------------------|
|3333333333333333----------------|5555555566665555555566668888|
|--------------------------------|----------------------------|
|--------------------------------|----------------------------|

RIFF C:
|--------------------------------|--------------------------------|
|--------------------------------|--------(88)88888888111111119999|
|----------------5555555555555555|--------------------------------|
|3333333333333333----------------|555555555555(55)----------------|
|--------------------------------|--------------------------------|
|--------------------------------|--------------------------------|
					              Elleven
RIFF D:
|--------------------------|------------------------------------|
|----------------------6--6|------------------------------------|
|--------------55555555-5--|------------8--------------8--------|
|33333333333333------------|555555555555----55555555555---555555|
|--------------------------|------------------------------------|
|--------------------------|------------------------------------|


FORM:       TIME
FADE IN (E5)0:01
LICK A X4   0:06
LICK B X4   0:30
Fminor
RIFF A X4 (GUITAR ONLY)  0:56
RIFF A X8 (WITH DRUMS)   1:20
RIFF B X8   2:08
RIFF A X8   2:56
RIFF B X8   3:44
RIFF C X10  4:31
RIFF D X4   5:19
RIFF C X4   5:43
RIFF D X8   6:07
RIFF A X16  6:54


Tabbed by Anders Pedersen
mc_nyregrus@hotmail.com
Добавлено: 16.07.2012
Другие материалы по этой песне:

Страница создана 21.04.2012
http://primanota.ru/burzum/jesu-dod-chords.htm
Привет, Гость.
Предлагаем пройти революционный курс по гитаре.
Подарок от PrimaNota.Ru, забирай!