PrimaNota.ru - самый крупный в мире бесплатный архив песенных текстов, аккордов, табулатур и нот


Bullet For My Valentine - Her Voices Resides - бас-таба, видео

Регистрация Запомнить меня
Войти через:  Facebook Google Twitter Vk Yandex Mail.ru

Bullet For My Valentine - Her Voices Resides - бас-таба, видео

Печатать
Просмотров: 160
hey i know this is how the song goes because it matches the song so have fun!

e-mail me for mistakes  punk.forever@hotmail.co.uk


intro
|----------|----------|----------|-----------|
|----------|----------|----------|-----------|
|----------|----------|----------|-101-0-535-| x3
|-00000000-|-00000000-|-7-5-0-2-3|-----------|

|----------|----------|----------|-----------|
|----------|----------|----------|-----------|
|----------|----------|----------|-1~-----3\-|
|-00000000-|-00000000-|-7-5-0-2-3|-----------|

1st verse
|----------|----------|----------|-----------|
|----------|----------|----------|-----------|
|----------|----------|----------|-----------|
|-00000000-|-00000000-|-32000000-|00-3-2-5-2-|
                                               ]-x2
|----------|----------|----------|-----------|
|----------|----------|----------|-----------|
|----------|----------|----------|-----------|
|-00000000-|-00000000-|-32000000-|-----------| 

chorus
|----------|----------|----------|-----------|
|------2-3-|----------|------2-3-|-----------| 
|-1-3-0----|-1-3-0000-|-1-3-0----|-1-3-------|
|----------|----------|----------|-----0-----|

pre-verse
|----------|----------|----------|-----------|
|----------|----------|----------|-----------|
|----------|----------|----------|-101-0-535-| x3
|-00000000-|-00000000-|-7-5-0-2-3|-----------|

|----------|----------|----------|-----------|
|----------|----------|----------|-----------|
|----------|----------|----------|-1~-----3\-|
|-00000000-|-00000000-|-7-5-0-2-3|-----------|

2nd verse 
|----------|----------|----------|-----------|
|----------|----------|----------|-----------|
|----------|----------|----------|-----------|
|-00000000-|-00000000-|-32000000-|00-3-2-5-2-|
                                               ]-x2
|----------|----------|----------|-----------|
|----------|----------|----------|-----------|
|----------|----------|----------|-----------|
|-00000000-|-00000000-|-32000000-|-----------| 

chorus
|----------|----------|----------|-----------|
|------2-3-|----------|------2-3-|-----------| 
|-1-3-0----|-1-3-0000-|-1-3-0----|-1-3-------|
|----------|----------|----------|-----0-----|

pre-verse
|----------|----------|----------|-----------|
|----------|----------|----------|-----------|
|----------|----------|----------|-101-0-535-| x3
|-00000000-|-00000000-|-7-5-0-2-3|-----------|

|----------|----------|----------|-----------|
|----------|----------|----------|-----------|
|----------|----------|----------|-1~-----3\-|
|-00000000-|-00000000-|-7-5-0-2-3|-----------|

bridge
|----------|----------|----------|-----------|
|----------|----------|----------|-----------|
|----------|----------|----------|-----------| x2
|-5~-------|----7--8--|-2~-------|-10-10-10--|

pre- solo
|----------|----------|----------|-----------|
|----------|----------|----------|-----------|
|----------|----------|----------|-1-11-3-33-|
|-0-0------|-0-0------|-0-0------|0----------|

|----------|----------|----------|-----------|
|----------|----------|----------|-----------|
|----------|----------|----------|-----------|
|-0-0------|-0-0------|-0-0------|0-0~-------|

|----------|----------|----------|-----------|
|----------|----------|----------|-----------|
|----------|----------|----------|-1-11-3-33-| x2
|-0-0------|-0-0------|-0-0------|0----------|

solo
|----------|----------|----------|-----------|
|----------|----------|----------|-----------|
|----------|----------|----------|-----------|
|-00000000-|-00000000-|-32000000-|00-3-2-5-2-|
                                             
|----------|----------|----------|-----------|
|----------|----------|----------|-----------|
|----------|----------|----------|-----------|
|-00000000-|-00000000-|-32000000-|00-3-2-5-2-|

|----------|----------|----------|-----------|
|----------|----------|----------|-----------|
|----------|----------|----------|-----------|
|-00000000-|-00000000-|-00000000-|-000000000-|

chorus
|----------|----------|----------|-----------|
|------2-3-|----------|------2-3-|-----------| 
|-1-3-0----|-1-3-0000-|-1-3-0----|-1-3-------|
|----------|----------|----------|-----0-----|

outro

figure it out sorry

its easy!




Добавлено: 18.03.2012
Другие материалы по этой песне:
  • Аккорды и текст

Страница создана 18.03.2012
http://primanota.ru/bullet-for-my-valentine/her-voices-resides-chords.htm
Привет, Гость.
Предлагаем пройти революционный курс по гитаре.
Подарок от PrimaNota.Ru, забирай!