PrimaNota.ru - самый крупный в мире бесплатный архив песенных текстов, аккордов, табулатур и нот


Bullet For My Valentine - Say Goodnight Acousitc - таба, видео

Регистрация Запомнить меня
Войти через:  Facebook Google Twitter Vk Yandex Mail.ru

Bullet For My Valentine - Say Goodnight Acousitc - таба, видео

Печатать
Просмотров: 668
Artist: Bullet For My Valentine
  Song: Say Goodnight Acoustic
    CD: Scream, Aim, Fire [bonus track on European release]
------------

Tabbed by: -Tate.Bedlam-
email: tatebedlam@hotmail.com
------------

I saw that none of the tabs on here had the second guitar, so I thought I would touch on
in this tab.  This is my first tab, but I'm certain that it's 100 percy.  Lyrics are
at the bottom, maybe when I have more time, I'll write it in with the guitars to make it 
to sing and play.  I realize that some of the notes in this tab aren't exact with
other tabs I've seen on this site as far as their position on the fretboard, but they're 
same notes in essence.  This is just the way that I play it and it works for me.  Open 
any constructive criticism, and just email me if you have any questions or coments.

------------
Say Goodnight Acoustic
Tuning: D Tuning             Key:
     D                        ( ) - natural harmonic [let notes ring]
     A                         x - mute strings indicated
     F                        ?/?? - slide up from ? to ??
     C                                     ex: 3/5
     G                         ?= -  let ?[note] ring
     D                                     ex: 3=
                               . -  palm mute notes indicated
Intro-
  guitar 1
D|---------------------------------|---------------------------------|
A|---------------------------------|---------------------------------|
F|---------0-----------0-------0---|---------0-----------0-------0---|
C|-----4-----4---4-------4---4---4-|-----4-----4---4-------4---4---4-|
G|---7---7-----7-----7-----5-------|---7---7-----7-----7-----5-------|
D|-0---------------0---------------|-0---------------0---------------|
 |guitar 2
D|---------------------------------|---------------------------------|
A|---------------------------------|---------------------------------|
F|---------------------------------|---------------------------------|
C|---------------------------------|---------------------------------|
G|---------------------------------|---------------------------------|
D|---------------------------------|---------------------------------|

  guitar 1
D|---------------------------------|---------------------------------|
A|---------------------------------|---------------------------------|
F|---------0-----------0-------0---|---------0-----------0-------0---|
C|-----4-----4---4-------4---4---4-|-----4-----4---4-------4---4---4-|
G|---7---7-----7-----7-----5-------|---7---7-----7-----7-----5-------|
D|-0---------------0---------------|-0---------------0---------------|
 |guitar 2
D|---------------------------------|---------------------------------|
A|---------------------------------|---------------------------------|
F|---------0-----------0-------0---|---------0-----------0-------0---|
C|-----4-----4---4-------4---4---4-|-----4-----4---4-------4---4---4-|
G|---7---7-----7-----7-----5-------|---7---7-----7-----7-----5-------|
D|-0---------------0---------------|-0---------------0---------------|


Verse 1-      Heaven's waiting for you...
 guitar 1
D|-----------------------------------|-----------------------------------|
A|---------5-------------------------|---------5-------------------------|
F|-----4-----4---------0-------0-----|-----4-----4---------0-------0-----|
C|-------5-----5-----2-------4---4---|-------5-----5-----2-------4---4---|
G|---7-----------2-3-----3/5-------5-|---7-----------2-3-----3/5-------5-|
D|-0---------------------------------|-0---------------------------------|
 |guitar 2
D|-----------------------------------|-----------------------------------|
A|---------5-------------------------|---------5-------------------------|
F|-----4-----4---------0-------0-----|-----4-----4---------0-------0-----|
C|-------5-----5-----2-------4---4---|-------5-----5-----2-------4---4---|
G|---7-----------2-3-----3/5-------5-|---7-----------2-3-----3/5-------5-|
D|-0---------------------------------|-0---------------------------------|

  guitar 1    Hearing your pulse go on and on, and on...
D|-----------------------------------|-----------------0=-------|
A|---------5-------------------------|---------5-------3=-------|
F|-----4-----4---------0-------0-----|-----4-----4-----0=-------|
C|-------5-----5-----2-------4---4---|-------5-----5---2=-------|
G|---7-----------2-3-----3/5-------5-|---7-----------2-3=-------|
D|-0---------------------------------|-0-------------------3-2--|
 |guitar 2
D|-----------------------------------|-----------------0=-------|
A|---------5-------------------------|---------5-------3=---(7)-|
F|-----4-----4---------0-------0-----|-----4-----4-----0=-(5)---|
C|-------5-----5-----2-------4---4---|-------5-----5---2=-------|
G|---7-----------2-3-----3/5-------5-|---7-----------2-3=-------|
D|-0---------------------------------|-0------------------------|

 guitar 1     I live my life in misery...
D|-----------------------------------|-----------------------------------|
A|---------5-------------------------|---------5-------------------------|
F|-----4-----4---------0-------0-----|-----4-----4---------0-------0-----|
C|-------5-----5-----2-------4---4---|-------5-----5-----2-------4---4---|
G|---7-----------2-3-----3/5-------5-|---7-----------2-3-----3/5-------5-|
D|-0---------------------------------|-0---------------------------------|
 |guitar 2
D|-----------------------------------|-----------------------------------|
A|---------5-------------------------|---------5-------------------------|
F|-----4-----4---------0-------0-----|-----4-----4---------0-------0-----|
C|-------5-----5-----2-------4---4---|-------5-----5-----2-------4---4---|
G|---7-----------2-3-----3/5-------5-|---7-----------2-3-----3/5-------5-|
D|-0---------------------------------|-0---------------------------------|

 guitar 1     No breath left inside of me...
D|-----------------------------------|-----------------------------------|
A|---------5-------------------------|---------5-------------------------|
F|-----4-----4---------0-------0-----|-----4-----4---------0-------0-----|
C|-------5-----5-----2-------4---4---|-------5-----5-----2-------4---4---|
G|---7-----------2-3-----3/5-------5-|---7-----------2-3-----3/5-------5-|
D|-0---------------------------------|-0---------------------------------|
 |guitar 2
D|-----------------------------------|-----------------------------------|
A|---------5-------------------------|---------5----------------------(7)|
F|-----4-----4---------0-------0-----|-----4-----4---------0-------0(5)--|
C|-------5-----5-----2-------4---4---|-------5-----5-----2-------4-------|
G|---7-----------2-3-----3/5-------5-|---7-----------2-3-----3/5---------|
D|-0---------------------------------|-0---------------------------------|

Chorus
  guitar 1    Say goodnight...
D|---------------------0-------------|
A|---------3-------------3-----------|
F|-----0-----0-------0---------------|
C|---2---2-----2---------------4-5-4-|
G|-3-------------3-3-------3/5-------|
D|-----------------------------------|
 |guitar 2
D|---------------------0-------------|
A|---------3-------------3-----------|
F|-----0-----0-------0---------------|
C|---2---2-----2---------------4-5-4-|
G|-3-------------3-3-------3/5-------|
D|-----------------------------------|

  guitar 1    Just sleep tight...
D|---------------------0-------------|
A|---------5---------0---------------|
F|-----4-----4-----------0-----------|
C|-------5-----5---------------4-5-4-|
G|---7---------------------3/5-------|
D|-0-------------0-0-----------------|
 |guitar 2
D|---------------------0-------------|
A|---------5---------0---------------|
F|-----4-----4-----------0-----------|
C|-------5-----5---------------4-5-4-|
G|---7---------------------3/5-------|
D|-0-------------0-0-----------------|

  guitar 1    Say goodnight...
D|---------------------0--------------0======---------|
A|---------3-------------3------------0======---------|
F|-----0-----0-------0----------------0======---------|
C|---2---2-----2---------------4-5-4--2======---------|
G|-3-------------3-3-------3/5--------2======---------|
D|------------------------------------0======-----3-2-|
 |guitar 2
D|---------------------0--------------0=--(5)---------|
A|---------3-------------3------------0=----(5)-(7)---|
F|-----0-----0-------0----------------0=------(5)-----|
C|---2---2-----2---------------4-5-4--2=----------(5)-|
G|-3-------------3-3-------3/5--------2=--------------|
D|------------------------------------0=--------------|

Verse 2-      Flowers layed out for you...
 guitar 1
D|-----------------------------------|-----------------------------------|
A|---------5-------------------------|---------5-------------------------|
F|-----4-----4---------0-------0-----|-----4-----4---------0-------0-----|
C|-------5-----5-----2-------4---4---|-------5-----5-----2-------4---4---|
G|---7-----------2-3-----3/5-------5-|---7-----------2-3-----3/5-------5-|
D|-0---------------------------------|-0---------------------------------|
 |guitar 2
D|-----------------------------------|-----------------------------------|
A|---------5-------------------------|---------5-------------------------|
F|-----4-----4---------0-------0-----|-----4-----4---------0-------0-----|
C|-------5-----5-----2-------4---4---|-------5-----5-----2-------4---4---|
G|---7-----------2-3-----3/5-------5-|---7-----------2-3-----3/5-------5-|
D|-0---------------------------------|-0---------------------------------|

  guitar 1    Seeing your face reflect from our baby's eyes...
D|-----------------------------------|-----------------0=----------|
A|---------5-------------------------|---------5-------3=----------|
F|-----4-----4---------0-------0-----|-----4-----4-----0=----------|
C|-------5-----5-----2-------4---4---|-------5-----5---2=----------|
G|---7-----------2-3-----3/5-------5-|---7-----------2-3=----------|
D|-0---------------------------------|-0----------------------3-2--|
 |guitar 2
D|-----------------------------------|-----------------0-----------|
A|---------5-------------------------|---------5-------3--(7)(7)---|
F|-----4-----4---------0-------0-----|-----4-----4-----0(5)----(7)-|
C|-------5-----5-----2-------4---4---|-------5-----5---2-----------|
G|---7-----------2-3-----3/5-------5-|---7-----------2-3-----------|
D|-0---------------------------------|-0---------------------------|

 guitar 1     I live my life in misery...
D|-----------------------------------|-----------------------------------|
A|---------5-------------------------|---------5-------------------------|
F|-----4-----4---------0-------0-----|-----4-----4---------0-------0-----|
C|-------5-----5-----2-------4---4---|-------5-----5-----2-------4---4---|
G|---7-----------2-3-----3/5-------5-|---7-----------2-3-----3/5-------5-|
D|-0---------------------------------|-0---------------------------------|
 |guitar 2
D|-----------------------------------|-----------------------------------|
A|---------5-------------------------|---------5-------------------------|
F|-----4-----4---------0-------0-----|-----4-----4---------0-------0-----|
C|-------5-----5-----2-------4---4---|-------5-----5-----2-------4---4---|
G|---7-----------2-3-----3/5-------5-|---7-----------2-3-----3/5-------5-|
D|-0---------------------------------|-0---------------------------------|

 guitar 1     No breath left inside of me...
D|-----------------------------------|-----------------------------------|
A|---------5-------------------------|---------5-------------------------|
F|-----4-----4---------0-------0-----|-----4-----4---------0-------0-----|
C|-------5-----5-----2-------4---4---|-------5-----5-----2-------4---4---|
G|---7-----------2-3-----3/5-------5-|---7-----------2-3-----3/5-------5-|
D|-0---------------------------------|-0---------------------------------|
 |guitar 2
D|-----------------------------------|-----------------------------------|
A|---------5-------------------------|---------5----------------------(7)|
F|-----4-----4---------0-------0-----|-----4-----4---------0-------0(5)--|
C|-------5-----5-----2-------4---4---|-------5-----5-----2-------4-------|
G|---7-----------2-3-----3/5-------5-|---7-----------2-3-----3/5---------|
D|-0---------------------------------|-0---------------------------------|

Chorus
  guitar 1    Say goodnight...
D|---------------------0-------------|
A|---------3-------------3-----------|
F|-----0-----0-------0---------------|
C|---2---2-----2---------------4-5-4-|
G|-3-------------3-3-------3/5-------|
D|-----------------------------------|
 |guitar 2
D|---------------------0-------------|
A|---------3-------------3-----------|
F|-----0-----0-------0---------------|
C|---2---2-----2---------------4-5-4-|
G|-3-------------3-3-------3/5-------|
D|-----------------------------------|

  guitar 1    Just sleep tight...
D|---------------------0-------------|
A|---------5---------0---------------|
F|-----4-----4-----------0-----------|
C|-------5-----5---------------4-5-4-|
G|---7---------------------3/5-------|
D|-0-------------0-0-----------------|
 |guitar 2
D|---------------------0-------------|
A|---------5---------0---------------|
F|-----4-----4-----------0-----------|
C|-------5-----5---------------4-5-4-|
G|---7---------------------3/5-------|
D|-0-------------0-0-----------------|

  guitar 1    Say goodnight...
D|---------------------0------------------------------------------|
A|---------3-------------3----------------------------------------|
F|-----0-----0-------0----------------------------------5-------7-|
C|---2---2-----2---------------4-5-4--2-2-2-2-2-2-2-2-xx5-xx5-xx7-|
G|-3-------------3-3-------3/5--------2-2-2-2-2-2-2-2-xx3-xx5-xx5-|
D|------------------------------------0-0-0-0-0-0-0-0-xx--xx3-xx--|
 |                                    . . . . . . .
 |guitar 2
D|---------------------0------------------------------------------|
A|---------3-------------3----------------------------------------|
F|-----0-----0-------0----------------------------------5-------7-|
C|---2---2-----2---------------4-5-4--2-2-2-2-2-2-2-2-xx5-xx5-xx7-|
G|-3-------------3-3-------3/5--------2-2-2-2-2-2-2-2-xx3-xx5-xx5-|
D|------------------------------------0-0-0-0-0-0-0-0-xx--xx3-xx--|
                                      . . . . . . .


  guitar 1    So here I am...
D|-------------------------------|-------------------------------|
A|-------------------------------|-------------------------------|
F|-9-99---9---0=---5-------7-----|-9-99---9---0=---5-------7-----|
C|-9-99-x-9-x-2=-xx5-xx5-xx7--xx-|-9-99-x-9-x-2=-xx5-xx5-xx7--xx-|
G|-7-77-x-7-x-3=-xx3-xx5-xx5--xx-|-7-77-x-7-x-3=-xx3-xx5-xx5--xx-|
D|-0-00-x-0-x----xx--xx3-xx---xx-|-0-00-x-0-x----xx--xx3-xx---xx-|
 |        .
 |guitar 2
D|-------------------------------|-------------------------------|
A|-------------------------------|-------------------------------|
F|-9-99---9---0=---5-------7-----|-9-99---9---0=---5-------7-----|
C|-9-99-x-9-x-2=-xx5-xx5-xx7--xx-|-9-99-x-9-x-2=-xx5-xx5-xx7--xx-|
G|-7-77-x-7-x-3=-xx3-xx5-xx5--xx-|-7-77-x-7-x-3=-xx3-xx5-xx5--xx-|
D|-0-00-x-0-x----xx--xx3-xx---xx-|-0-00-x-0-x----xx--xx3-xx---xx-|

  guitar 1    So here I am...
D|-------------------------------|-------------------------------|
A|-------------------------------|-------------------------------|
F|-9-99---9---0=---5-------7-----|-9-99---9---0=---5-------7-----|
C|-9-99-x-9-x-2=-xx5-xx5-xx7--xx-|-9-99-x-9-x-2=-xx5-xx5-xx7--xx-|
G|-7-77-x-7-x-3=-xx3-xx5-xx5--xx-|-7-77-x-7-x-3=-xx3-xx5-xx5--xx-|
D|-0-00-x-0-x----xx--xx3-xx---xx-|-0-00-x-0-x----xx--xx3-xx---xx-|
 |guitar 2
D|-------------------------------|-------------------------------|
A|-------------------------------|-------------------------------|
F|-9-99---9---0=---5-------7-----|-9-99---9---0=---5-------7-----|
C|-9-99-x-9-x-2=-xx5-xx5-xx7--xx-|-9-99-x-9-x-2=-xx5-xx5-xx7--xx-|
G|-7-77-x-7-x-3=-xx3-xx5-xx5--xx-|-7-77-x-7-x-3=-xx3-xx5-xx5--xx-|
D|-0-00-x-0-x----xx--xx3-xx---xx-|-0-00-x-0-x----xx--xx3-xx---xx-|


  guitar 1    Here I am with you...
D|-------------------------------|-------------------------------|
A|-------------------------------|-------------------------------|
F|-9-99---9---0=---5-------7-----|-9-99---9---0=---5-------7-----|
C|-9-99-x-9-x-2=-xx5-xx5-xx7--xx-|-9-99-x-9-x-2=-xx5-xx5-xx7--xx-|
G|-7-77-x-7-x-3=-xx3-xx5-xx5--xx-|-7-77-x-7-x-3=-xx3-xx5-xx5--xx-|
D|-0-00-x-0-x----xx--xx3-xx---xx-|-0-00-x-0-x----xx--xx3-xx---xx-|
 |guitar 2
D|-------------------------------|-------------------------------|
A|-------------------------------|-------------------------------|
F|-9-99---9---0=---5-------7-----|-9-99---9---0=---5-------7-----|
C|-9-99-x-9-x-2=-xx5-xx5-xx7--xx-|-9-99-x-9-x-2=-xx5-xx5-xx7--xx-|
G|-7-77-x-7-x-3=-xx3-xx5-xx5--xx-|-7-77-x-7-x-3=-xx3-xx5-xx5--xx-|
D|-0-00-x-0-x----xx--xx3-xx---xx-|-0-00-x-0-x----xx--xx3-xx---xx-|

  guitar 1    Memories are calling...
D|-------------------------------|-------------------------------|
A|-------------------------------|-------------------------------|
F|-9-99---9---0=---5-------7-----|-9-99---9---0=---5-------7-----|
C|-9-99-x-9-x-2=-xx5-xx5-xx7--xx-|-9-99-x-9-x-2=-xx5-xx5-xx7--xx-|
G|-7-77-x-7-x-3=-xx3-xx5-xx5--xx-|-7-77-x-7-x-3=-xx3-xx5-xx5--xx-|
D|-0-00-x-0-x----xx--xx3-xx---xx-|-0-00-x-0-x----xx--xx3-xx---xx-|
 |guitar 2
D|-------------------------------|-------------------------------|
A|-------------------------------|-------------------------------|
F|-9-99---9---0=---5-------7-----|-9-99---9---0=---5-------7-----|
C|-9-99-x-9-x-2=-xx5-xx5-xx7--xx-|-9-99-x-9-x-2=-xx5-xx5-xx7--xx-|
G|-7-77-x-7-x-3=-xx3-xx5-xx5--xx-|-7-77-x-7-x-3=-xx3-xx5-xx5--xx-|
D|-0-00-x-0-x----xx--xx3-xx---xx-|-0-00-x-0-x----xx--xx3-xx---xx-|


  guitar 1    Farewell my friend...--v
D|--------------------0-|-------------------0-|
A|--------------------0-|-------------------0-|
F|-----0-------0------0-|-----0-------0-----0-|
C|---2-------4---4----2-|---2-------4---4---2-|
G|-3-----3/5-------5--2-|-3-----3/5-------5-2-|
D|--------------------0-|-------------------0-|
 |guitar 2
D|--------------------0-|-------------------0-|
A|--------------------5-|-------------------5-|
F|-----0-------0------4-|-----0-------0-----4-|
C|---2-------4---4----5-|---2-------4---4---5-|
G|-3-----3/5-------5--7-|-3-----3/5-------5-7-|
D|--------------------0-|-------------------0-|

  guitar 1
D|--------------------0-|-----------------------------------------------|
A|--------------------0-|-----------------------------------------------|
F|-----0-------0------0-|-----0-------0-----------------------5-------7-|
C|---2-------4---4----2-|---2-------4---4---2-2-2-2-2-2-2-2-xx5-xx5-xx7-|
G|-3-----3/5-------5--2-|-3-----3/5-------5-2-2-2-2-2-2-2-2-xx3-xx5-xx5-|
D|--------------------0-|-------------------0-0-0-0-0-0-0-0-xx--xx3-xx--|
 |                                          . . . . . . .
 |guitar 2
D|--------------------0-|-----------------------------------------------|
A|--------------------5-|-----------------------------------------------|
F|-----0-------0------4-|-----0-------0-----------------------5-------7-|
C|---2-------4---4----5-|---2-------4---4---2-2-2-2-2-2-2-2-xx5-xx5-xx7-|
G|-3-----3/5-------5--7-|-3-----3/5-------5-2-2-2-2-2-2-2-2-xx3-xx5-xx5-|
D|--------------------0-|-------------------0-0-0-0-0-0-0-0-xx--xx3-xx--|
                                            . . . . . . .


  guitar 1    Here I am with you...
D|-------------------------------|-------------------------------|
A|-------------------------------|-------------------------------|
F|-9-99---9---0=---5-------7-----|-9-99---9---0=---5-------7-----|
C|-9-99-x-9-x-2=-xx5-xx5-xx7--xx-|-9-99-x-9-x-2=-xx5-xx5-xx7--xx-|
G|-7-77-x-7-x-3=-xx3-xx5-xx5--xx-|-7-77-x-7-x-3=-xx3-xx5-xx5--xx-|
D|-0-00-x-0-x----xx--xx3-xx---xx-|-0-00-x-0-x----xx--xx3-xx---xx-|
 |guitar 2
D|-------------------------------|-------------------------------|
A|-------------------------------|-------------------------------|
F|-9-99---9---0=---5-------7-----|-9-99---9---0=---5-------7-----|
C|-9-99-x-9-x-2=-xx5-xx5-xx7--xx-|-9-99-x-9-x-2=-xx5-xx5-xx7--xx-|
G|-7-77-x-7-x-3=-xx3-xx5-xx5--xx-|-7-77-x-7-x-3=-xx3-xx5-xx5--xx-|
D|-0-00-x-0-x----xx--xx3-xx---xx-|-0-00-x-0-x----xx--xx3-xx---xx-|

  guitar 1    Memories are calling...
D|-------------------------------|-------------------------------|
A|-------------------------------|-------------------------------|
F|-9-99---9---0=---5-------7-----|-9-99---9---0=---5-------7-----|
C|-9-99-x-9-x-2=-xx5-xx5-xx7--xx-|-9-99-x-9-x-2=-xx5-xx5-xx7--xx-|
G|-7-77-x-7-x-3=-xx3-xx5-xx5--xx-|-7-77-x-7-x-3=-xx3-xx5-xx5--xx-|
D|-0-00-x-0-x----xx--xx3-xx---xx-|-0-00-x-0-x----xx--xx3-xx---xx-|
 |guitar 2
D|-------------------------------|-------------------------------|
A|-------------------------------|-------------------------------|
F|-9-99---9---0=---5-------7-----|-9-99---9---0=---5-------7-----|
C|-9-99-x-9-x-2=-xx5-xx5-xx7--xx-|-9-99-x-9-x-2=-xx5-xx5-xx7--xx-|
G|-7-77-x-7-x-3=-xx3-xx5-xx5--xx-|-7-77-x-7-x-3=-xx3-xx5-xx5--xx-|
D|-0-00-x-0-x----xx--xx3-xx---xx-|-0-00-x-0-x----xx--xx3-xx---xx-|

I hope you all enjoyed this tab and got something out of it.  E-mail me if you have any
or comments.

-Tate.Bedlam-
Добавлено: 12.05.2012
Другие материалы по этой песне:

Страница создана 12.05.2012
http://primanota.ru/bullet-for-my-valentine/say-goodnight-acousitc-chords.htm
Привет, Гость.
Предлагаем пройти революционный курс по гитаре.
Подарок от PrimaNota.Ru, забирай!