PrimaNota.ru - самый крупный в мире бесплатный архив песенных текстов, аккордов, табулатур и нот


Bullet For My Valentine - Ten Years Today - таба, видео

Регистрация Запомнить меня
Войти через:  Facebook Google Twitter Vk Yandex Mail.ru

Bullet For My Valentine - Ten Years Today - таба, видео

Печатать
Просмотров: 276
Band - Bullet for my valentine
Song - Ten years today
Album - The poison

Tuning - Drop C (CGCFAD)

. = palm mute

Gtr 1 -

|-----------------------0----------------------------------------|
|-----------------------0----------------------------------------|
|----------------------------------------------------------------|
|-12-\\\\-----0-22-2-2------2-0-2----9---7------4-5---4-5p4------|
|-12-\\\\-----0-22-2-2------2-0-2-------------3-----5------------|
|-12-\\\\-----0-22-2-2------2-0-2--------------------------------|
long slide    . .. . .      . . .

|-------------0--------------------------------------|
|-------------0--------------------------------------|
|----------------------------------------------------|
|---0-22-2-2-----2-0-2----9---7-----9-7-9-10-9-7-----|
|---0-22-2-2-----2-0-2-------------------------------|
|---0-22-2-2-----2-0-2-------------------------------|
    . .. . .     . . .

Gtr 2 -

|-----------------------0----------------------------------------|
|-----------------------0----------------------------------------|
|------------------------------------7--5---------4-5---4-5p4----|
|-12-\\\\-----0-22-2-2------2-0-2---------------3-----5----------|
|-12-\\\\-----0-22-2-2------2-0-2--------------------------------|
|-12-\\\\-----0-22-2-2------2-0-2--------------------------------|
 long slide   . .. . .      . . .

|-------------0--------------------------------------|
|-------------0--------------------------------------|
|-------------------------7---5----5-4-5-7-5-4-------|
|---0-22-2-2-----2-0-2-------------------------------|
|---0-22-2-2-----2-0-2-------------------------------|
|---0-22-2-2-----2-0-2-------------------------------|
    . .. . .     . . .

On the 3rd time play -

Gtr 1 -

|------------0--------------------------------------------------------|
|------------0--------------------------------------------------------|
|---------------------------------------------------------------------|
|--0-22-2-2------2-0-2----9---7h9p7h9p7h9p7h9p7------4-5---4-5p4------|
|--0-22-2-2------2-0-2-----------------------------3-----5------------|
|--0-22-2-2------2-0-2------------------------------------------------|
   . .. . .      . . .


Gtr 2 -

|-----------0---------------------------------------------------|
|-----------0---------------------------------------------------|
|------------------------7--5h7p5h7p5h7p5h7p5----4-5---4-5p4----|
|-0-22-2-2------2-0-2--------------------------3-----5----------|
|-0-22-2-2------2-0-2-------------------------------------------|
|-0-22-2-2------2-0-2-------------------------------------------|
  . .. . .      . . .
Добавлено: 20.03.2012
Другие материалы по этой песне:
  • Аккорды и текст

Страница создана 21.02.2012
http://primanota.ru/bullet-for-my-valentine/ten-years-today-chords.htm
Привет, Гость.
Предлагаем пройти революционный курс по гитаре.
Подарок от PrimaNota.Ru, забирай!