PrimaNota.ru - самый крупный в мире бесплатный архив песенных текстов, аккордов, табулатур и нот


Bullet For My Valentine - Worthless - таба, видео

Регистрация Запомнить меня
Войти через:  Facebook Google Twitter Vk Yandex Mail.ru

Bullet For My Valentine - Worthless - таба, видео

Печатать
Просмотров: 139
-------------------------------------------------------------------------------
                             SONG NAME - Band Name
-------------------------------------------------------------------------------
Tabbed by: Richie Lennox
E-mail: Richielennox1990@gmail.com

Tuning: Drop C

Tempo: 91 BPM

Intro:
00:02 - 00:18

Guitar I:

Effects: Distortion

D|----------------------------------------------------------------------------
A|----------------------------------------------------------------------------
F|----------------------------------------------------------------------------
C|--12--0--0--7--0--10--8--0--0--5--0--8--7--0--0--3--0--7--5--0--3--0--2--0--
G|----------------------------------------------------------------------------
C|---------------------------------------------------------------------------- x4

Guitar II:

Effects: Distortion

D|----------------------------------------------------------------------------
A|----------------------------------------------------------------------------
F|----------------------------------------------------------------------------
C|--0------------------0-----------------0------------------------------------
G|--0------------------0-----------------0------------------------------------
C|--0------------------0-----------------0------------------------------------ 


D|----------------------------------------------------------------------------
A|----------------------------------------------------------------------------
F|----------------------------------------------------------------------------
C|--0------------------0-----------------10----------------5------------------
G|--0------------------0-----------------8-----------------3------------------
C|--0------------------0-----------------8-----------------3------------------ 


D|----------------------------------------------------------------------------
A|----------------------------------------------------------------------------
F|----------------------------------------------------------------------------
C|--0------------------0-----------------0------------------------------------
G|--0------------------0-----------------0------------------------------------
C|--0------------------0-----------------0------------------------------------ 


D|----------------------------------------------------------------------------
A|----------------------------------------------------------------------------
F|----------------------------------------------------------------------------
C|--8--------8---------5-----------------3------------------0~----------------
G|--8--------8---------5-----------------3------------------0~----------------
C|--8--------8---------5-----------------3------------------0~---------------- 


Dirty Bridge:
00:18-00:24

Effects: Distortion

D|----------------------------------------------------------------------------
A|----------------------------------------------------------------------------
F|----------------------------------------------------------------------------
C|--7--7--7--7--7--7--8--8--8--8--8--8--7--7--7--7--7--7--5--5--5--5--5--5----
G|--5--5--5--5--5--5--5--5--5--5--5--5--5--5--5--5--5--5--5--5--5--5--5--5----
C|----------------------------------------------------------------------------

PAUSE

Verse1:
00:25-00:56

Effects: Distortion

Vocals start here!

Guitar I:

D|----------------------------------------------------------------------------  |
A|----------------------------------------------------------------------------  |
F|----------------------------------------------------------------------------  |
C|--7--7--7--7--7--7--8--8--8--8--8--8--7--7--7--7--7--7--5--5--5--5--5--5----  |
G|--5--5--5--5--5--5--5--5--5--5--5--5--5--5--5--5--5--5--5--5--5--5--5--5----  |
C|----------------------------------------------------------------------------  |
                                                                                |
                                                                                |       x 2
                                                                                |
D|----------------------------------------------------------------------------  |
A|----------------------------------------------------------------------------  |
F|----------------------------------------------------------------------------  |
C|--7--7--7--7--7--7--3--3--3--3--3--3--2-----------------3-------------------  |
G|--5--5--5--5--5--5--5--5--5--5--5--5--5-----------------7-------------------  |
C|----------------------------------------------------------------------------  |


D|----------------------------------------------------------------------------
A|----------------------------------------------------------------------------
F|----------------------------------------------------------------------------
C|--7--7--7--7--7--7--8--8--8--8--8--8--7--7--7--7--7--7--5--5--5--5--5--5----
G|--5--5--5--5--5--5--5--5--5--5--5--5--5--5--5--5--5--5--5--5--5--5--5--5----
C|----------------------------------------------------------------------------

D|----------------------------------------------------------------------------
A|----------------------------------------------------------------------------
F|--------------------------------------10----------------9-------------------
C|--7--7--7--7--7--7--3--3--3--3--3--3--x-----------------x-------------------
G|--5--5--5--5--5--5--5--5--5--5--5--5--8-----------------7-------------------
C|----------------------------------------------------------------------------


Guitar II:

Comes in at 00:41

D|----------------------------------------------------------------------------
A|----------------------------------------------------------------------------
F|----------------------------------------------------------------------------
C|--0--0--0-----------0--0--0-----------0--0--0-------------------------------
G|--0--0--0-----------0--0--0-----------0--0--0-------------------------------
C|--0--0--0-----------0--0--0-----------0--0--0-------------------------------


D|----------------------------------------------------------------------------
A|----------------------------------------------------------------------------
F|--------------------------------------7-----------------3-------------------
C|--1--0--0-----------0--0--0-----------7-----------------3-------------------
G|--1--0--0-----------0--0--0-----------5-----------------1-------------------
C|--1--0--0-----------0--0--0-------------------------------------------------


D|----------------------------------------------------------------------------
A|----------------------------------------------------------------------------
F|----------------------------------------------------------------------------
C|--0--0--0-----------0--0--0-----------0--0--0-------------------------------
G|--0--0--0-----------0--0--0-----------0--0--0-------------------------------
C|--0--0--0-----------0--0--0-----------0--0--0-------------------------------


D|----------------------------------------------------------------------------
A|----------------------------------------------------------------------------
F|----------------------------------------------------------------------------
C|--1--0--0-----------0--0--0-----------8-----------------8-------------------
G|--1--0--0-----------0--0--0-----------8-----------------8-------------------
C|--1--0--0-----------0--0--0-----------8-----------------8-------------------

Course:
00:57-01:16

Guitar I:

Effects: Distortion

D|----------------------------------------------------------------------------
A|----------------------------------------------------------------------------
F|--10-10-10-10-10-10-10-10-10-10-10-10-9--9--9--9--9--9--9--9--9--9--9--9----
C|--x--x--x--x--x--x--x--x--x--x--x--x--x--x--x--x--x--x--x--x--x--x--x--x----
G|--8--8--8--8--8--8--8--8--8--8--8--8--7--7--7--7--7--7--7--7--7--7--7--7----
C|----------------------------------------------------------------------------


D|----------------------------------------------------------------------------
A|----------------------------------------------------------------------------
F|--7--7--7--7--7--7--10-10-10-10-10-10---------------------------------------
C|--x--x--x--x--x--x--x--x--x--x--x--x----------------------------------------
G|--5--5--5--5--5--5--8--8--8--8--8--8--1--0-----1--0--1--1--0-----1--0--1----
C|--------------------------------------------3-----------------3-------------
                                                 p........m        p.....m


D|----------------------------------------------------------------------------
A|----------------------------------------------------------------------------
F|--10-10-10-10-10-10-10-10-10-10-10-10-9--9--9--9--9--9--12-12-12-12-12-12---
C|--x--x--x--x--x--x--x--x--x--x--x--x--x--x--x--x--x--x--x--x--x--x--x--x----
G|--8--8--8--8--8--8--8--8--8--8--8--8--7--7--7--7--7--7--10-10-10-10-10-10---
C|----------------------------------------------------------------------------



D|----------------------------------------------------------------------------
A|----------------------------------------------------------------------------
F|--7--7--7--7--7--7--9--9--9--9--9--9--10-10-10-10-10-10-9--9--9--9--9--9---
C|--x--x--x--x--x--x--x--x--x--x--x--x--x--x--x--x--x--x--x--x--x--x--x--x----
G|--5--5--5--5--5--5--7--7--7--7--7--7--8--8--8--8--8--8--7--7--7--7--7--7----
C|----------------------------------------------------------------------------


D|----------------------------------------------------------------------------
A|----------------------------------------------------------------------------
F|----------------------------------------------------------------------------
C|--0--0--0-----------0--0--0-----------0--0--0-------------------------------
G|--0--0--0-----------0--0--0-----------0--0--0-------------------------------
C|--0--0--0-----------0--0--0-----------0--0--0-------------------------------
    p.....m           p.....m           p.....m

Guitar II:



D|----------------------------------------------------------------------------
A|----------------------------------------------------------------------------
F|----------------------------------------------------------------------------
C|--0-----------------------------------2-------------------------------------
G|--0-----------------------------------0-------------------------------------
C|--0-------------------------------------------------------------------------


D|----------------------------------------------------------------------------
A|----------------------------------------------------------------------------
F|----------------------------------------------------------------------------
C|--3-----------------------------------2--2--2--2--2--2--2--2--2--2--2--2----
G|--1-----------------------------------0--0--0--0--0--0--0--0--0--0--0--0----
C|----------------------------------------------------------------------------
                                        p................................m

D|----------------------------------------------------------------------------
A|----------------------------------------------------------------------------
F|----------------------------------------------------------------------------
C|--0-----------------------------------2-------------------------------------
G|--0-----------------------------------0-------------------------------------
C|--0-------------------------------------------------------------------------

D|----------------------------------------------------------------------------
A|----------------------------------------------------------------------------
F|----------------------------------------------------------------------------
C|--3-----------------------------------5-------------------------------------
G|--1-----------------------------------3-------------------------------------
C|----------------------------------------------------------------------------


D|----------------------------------------------------------------------------
A|----------------------------------------------------------------------------
F|----------------------------------------------------------------------------
C|--0--0--0-----------0--0--0-----------0--0--0-------------------------------
G|--0--0--0-----------0--0--0-----------0--0--0-------------------------------
C|--0--0--0-----------0--0--0-----------0--0--0-------------------------------
    p.....m           p.....m           p.....m



Verse2:
01:17-01:48

Effects: Distortion

Guitar I:


A                                       B

D|----------------------------------------------------------------------------  |
A|----------------------------------------------------------------------------  |
F|----------------------------------------------------------------------------  |
C|-----------0--7--8--------8--0----------------------------------------3--0--  |
G|----------------------------------------------------------------------------  |
C|--0--0--0-----------0--0--------8--7--0--000--0--0--0--0--8--7--5--0--------  |
    p.....m           p..m              p............................m          |
                                                                                |
C                                       D                                       | X2
                                                                                |
D|----------------------------------------------------------------------------  |
A|----------------------------------------------------------------------------  |
F|----------------------------------------------------------------------------  |
C|-----------0--7--8--------8--0----------------------------------------------  |
G|----------------------------------------------------------------------------  |
C|--0--0--0-----------0--0--------8--7--0--0-0-0--0--0--0--0--0-0-0--0--0--0--  |
    p.....m           p..m              p..................................m



D|----------------------------------------------------------------------------  |
A|----------------------------------------------------------------------------  | 
F|----------------------------------------------------------------------------  | x3 
C|-----------0--7--8--------8--0----------------------------------------3--0--  |
G|----------------------------------------------------------------------------  |
C|--0--0--0-----------0--0--------8--7--0--000--0--0--0--0--8--7--5--0--------  |
    p.....m           p..m              p............................m          

D|----------------------------------------------------------------------------  |
A|----------------------------------------------------------------------------  | 
F|--------------------------------------10----------------12------------------  | x3 
C|-----------0--7--8--------8--0--------x-------------------------------------  |
G|--------------------------------------8-----------------10------------------  |
C|--0--0--0-----------0--0--------8--7----------------------------------------  |
    p.....m           p..m                       


Guitar II:

Come in at: 01:32

D|----------------------------------------------------------------------------  |
A|----------------------------------------------------------------------------  | 
F|----------------------------------------------------------------------------  | x3 
C|-----------0--7--8--------8--0----------------------------------------3--0--  |
G|----------------------------------------------------------------------------  |
C|--0--0--0-----------0--0--------8--7--0--000--0--0--0--0--8--7--5--0--------  |
    p.....m           p..m              p............................m          

D|----------------------------------------------------------------------------  |
A|----------------------------------------------------------------------------  | 
F|--------------------------------------10----------------12------------------  | x3 
C|-----------0--7--8--------8--0--------x-------------------------------------  |
G|--------------------------------------8-----------------10------------------  |
C|--0--0--0-----------0--0--------8--7----------------------------------------  |
    p.....m           p..m                       




Course again: 1:48-2:03


Post-course: 2:04-2:12

Effects: Distortion

Guitar I:


D|----------------------------------------------------------------------------
A|----------------------------------------------------------------------------
F|--7--7--7--7--7--7--7--7--7--7--7--7--9--9--9--9--9--9--10-10-10-10-10-10---
C|--x--x--x--x--x--x--x--x--x--x--x--x--x--x--x--x--x--x--x--x--x--x--x--x----
G|--5--5--5--5--5--5--5--5--5--5--5--5--7--7--7--7--7--7--8--8--8--8--8--8----
C|----------------------------------------------------------------------------



D|----------------------------------------------------------------------------
A|----------------------------------------------------------------------------
F|--9--9--9--9--9--9--7--7--7--7--7--7--6--6--6--6--6--6--9--9--9--9--9--9----
C|--x--x--x--x--x--x--x--x--x--x--x--x--x--x--x--x--x--x--x--x--x--x--x--x----
G|--7--7--7--7--7--7--5--5--5--5--5--5--4--4--4--4--4--4--7--7--7--7--7--7----
C|----------------------------------------------------------------------------


Guitar II:

D|----------------------------------------------------------------------------
A|----------------------------------------------------------------------------
F|----------------------------------------------------------------------------
C|--0-----------------------------------2-------------------------------------
G|--0-----------------------------------0-------------------------------------
C|--0-------------------------------------------------------------------------


D|----------------------------------------------------------------------------
A|----------------------------------------------------------------------------
F|----------------------------------------------------------------------------
C|--3-----------------------------------2--2--2--2--2--2--2--2--2--2--2--2----
G|--1-----------------------------------0--0--0--0--0--0--0--0--0--0--0--0----
C|----------------------------------------------------------------------------
                                        p................................m

D|----------------------------------------------------------------------------
A|----------------------------------------------------------------------------
F|----------------------------------------------------------------------------
C|--0-----------------------------------2-------------------------------------
G|--0-----------------------------------0-------------------------------------
C|--0-------------------------------------------------------------------------

D|----------------------------------------------------------------------------
A|----------------------------------------------------------------------------
F|----------------------------------------------------------------------------
C|--3-----------------------------------5-------------------------------------
G|--1-----------------------------------3-------------------------------------
C|----------------------------------------------------------------------------


D|----------------------------------------------------------------------------
A|----------------------------------------------------------------------------
F|----------------------------------------------------------------------------
C|--5-------------------------------------------------------------------------
G|--5-----------------------------------------------------------------7--8----
C|--5-----------------------------------------------------------------7--8----
                                                                      P..M

D|----------------------------------------------------------------------------
A|----------------------------------------------------------------------------
F|----------------------------------------------------------------------------
C|--7-----------------------------------5-----------------2--2--2--2--2--2----
G|--7-----------------------------------3-----------------0--0--0--0--0--0----
C|--7-------------------------------------------------------------------------
                                                          P..............M


Breakdown Part I: 2:19-2:27

Effects: Distortion

Guitar I & II:

D|----------------------------------------------------------------------------  |
A|----------------------------------------------------------------------------  |
F|--7--7--7--7--7--7--7--7--7--7--7--7--7--7--7--7--7--7--7--7--7--7--7--7----  | X2
C|--x--x--x--x--x--x--x--x--x--x--x--x--x--x--x--x--x--x--x--x--x--x--x--x----  |
G|--5--5--5--5--5--5--5--5--5--5--5--5--5--5--5--5--5--5--5--5--5--5--5--5----  |
C|----------------------------------------------------------------------------  |


Breakdown Part II: 2:28-2:33

Effects: Clean

D|----------------------------------------------------------------------------
A|-----------6--------6-----------------5--------5----------------------------
F|----------------------------------------------------------------------------
C|--------7--------7--------7--------7--------7--------7----------------------
G|-----5--------5--------5--------5--------5--------5-------------------------
C|--0--------------------------0----------------------------------------------


D|----------------------------------------------------------------------------
A|--------------------5-------------------------------------------------------
F|-----------7-----------------7----------------------------------------------
C|--------5--------5--------5--------5----------------------------------------
G|-----5--------5--------5--------5-------------------------------------------
C|--5-------------------------------------------------------------------------



Pre course: 2:34-2:35

Effects: Distortion


D|----------------------------------------------------------------------------
A|----------------------------------------------------------------------------
F|----------------------------------------------------------------------------
C|----------------------------------------------------------------------------
G|--1--0-----1--0--1--1--0-----1--0--1----------------------------------------
C|--------3-----------------3-------------------------------------------------
          p........m        p.....m


Course again: 2:35-3:06 

Guitar I:

D|----------------------------------------------------------------------------  |
A|----------------------------------------------------------------------------  |
F|--10-10-10-10-10-10-10-10-10-10-10-10-9--9--9--9--9--9--9--9--9--9--9--9----  |
C|--x--x--x--x--x--x--x--x--x--x--x--x--x--x--x--x--x--x--x--x--x--x--x--x----  |
G|--8--8--8--8--8--8--8--8--8--8--8--8--7--7--7--7--7--7--7--7--7--7--7--7----  |
C|----------------------------------------------------------------------------  |
                                                                                |
                                                                                |
D|----------------------------------------------------------------------------  |
A|----------------------------------------------------------------------------  |
F|--7--7--7--7--7--7--10-10-10-10-10-10---------------------------------------  |
C|--x--x--x--x--x--x--x--x--x--x--x--x----------------------------------------  |
G|--5--5--5--5--5--5--8--8--8--8--8--8--1--0-----1--0--1--1--0-----1--0--1----  |
C|--------------------------------------------3-----------------3-------------  |
                                                 p........m        p.....m      |
                                                                                |
                                                                                | X 2
D|----------------------------------------------------------------------------  |
A|----------------------------------------------------------------------------  |
F|--10-10-10-10-10-10-10-10-10-10-10-10-9--9--9--9--9--9--12-12-12-12-12-12---  |
C|--x--x--x--x--x--x--x--x--x--x--x--x--x--x--x--x--x--x--x--x--x--x--x--x----  |
G|--8--8--8--8--8--8--8--8--8--8--8--8--7--7--7--7--7--7--10-10-10-10-10-10---  |
C|----------------------------------------------------------------------------  |
                                                                                |
                                                                                |
                                                                                |
D|----------------------------------------------------------------------------  |
A|----------------------------------------------------------------------------  |
F|--7--7--7--7--7--7--9--9--9--9--9--9--10-10-10-10-10-10-9--9--9--9--9--9----  |
C|--x--x--x--x--x--x--x--x--x--x--x--x--x--x--x--x--x--x--x--x--x--x--x--x----  |
G|--5--5--5--5--5--5--7--7--7--7--7--7--8--8--8--8--8--8--7--7--7--7--7--7----  |
C|----------------------------------------------------------------------------  |


Guitar II:

D|----------------------------------------------------------------------------  |
A|----------------------------------------------------------------------------  |
F|----------------------------------------------------------------------------  |
C|--0-----------------------------------2-------------------------------------  |
G|--0-----------------------------------0-------------------------------------  |
C|--0-------------------------------------------------------------------------  |
                                                                                |
                                                                                |
D|----------------------------------------------------------------------------  |
A|----------------------------------------------------------------------------  |
F|----------------------------------------------------------------------------  |
C|--3-----------------------------------2--2--2--2--2--2--2--2--2--2--2--2----  |
G|--1-----------------------------------0--0--0--0--0--0--0--0--0--0--0--0----  |
C|----------------------------------------------------------------------------  |
                                        p................................m      | X 2
                                                                                |
D|----------------------------------------------------------------------------  |
A|----------------------------------------------------------------------------  |
F|----------------------------------------------------------------------------  |
C|--0-----------------------------------2-------------------------------------  |
G|--0-----------------------------------0-------------------------------------  |
C|--0-------------------------------------------------------------------------  |
                                                                                |
                                                                                |
D|----------------------------------------------------------------------------  |
A|----------------------------------------------------------------------------  |
F|----------------------------------------------------------------------------  |
C|--3-----------------------------------5-------------------------------------  |
G|--1-----------------------------------3-------------------------------------  |
C|----------------------------------------------------------------------------  |


Outro: 3:06-3:18

Guitar I:

D|----------------------------------------------------------------------------
A|----------------------------------------------------------------------------
F|----------------------------------------------------------------------------
C|--12--0--0--7--0--10--8--0--0--5--0--8--7--0--0--3--0--7--5--0--3--0--2--0--
G|----------------------------------------------------------------------------
C|----------------------------------------------------------------------------

D|----------------------------------------------------------------------------
A|----------------------------------------------------------------------------
F|----------------------------------------------------------------------------
C|--0----0-------------0----0------------0----0-------------------------------
G|--0----0-------------0----0------------0----0-------------------------------
C|--0----0-------------0----0------------0----0------------------------------- 

Guitar II:

D|----------------------------------------------------------------------------
A|----------------------------------------------------------------------------
F|----------------------------------------------------------------------------
C|--0------------------0-----------------0------------------------------------
G|--0------------------0-----------------0------------------------------------
C|--0------------------0-----------------0------------------------------------ 


D|----------------------------------------------------------------------------
A|----------------------------------------------------------------------------
F|----------------------------------------------------------------------------
C|--0----0-------------0----0------------0----0-------------------------------
G|--0----0-------------0----0------------0----0-------------------------------
C|--0----0-------------0----0------------0----0------------------------------- 



************************************

| /   slide up
| \   slide down
| h   hammer-on
| p   pull-off
| ~   vibrato
| +   harmonic
| x   Mute note
| b   Bend
| pb  Pre-bend
| br  Bend release
| pbr Pre-bend release
| brb Bend release bend

************************************
Добавлено: 13.04.2016
Другие материалы по этой песне:

Страница создана 13.04.2016
http://primanota.ru/bullet-for-my-valentine/worthless-chords.htm
Привет, Гость.
Предлагаем пройти революционный курс по гитаре.
Подарок от PrimaNota.Ru, забирай!