PrimaNota.ru - самый крупный в мире бесплатный архив песенных текстов, аккордов, табулатур и нот


Bullet For My Valentine - Say Goodbye - таба, видео

Регистрация Запомнить меня
Войти через:  Facebook Google Twitter Vk Yandex Mail.ru

Bullet For My Valentine - Say Goodbye - таба, видео

Печатать
Просмотров: 305
Artist: Bullet For My Valentine
Song: Say Goodbye
Album: Scream Aim Fire


Tabbed by:marco66666
Email: marco66666@gmail.com

Tuning:DGCFAD(Guitar Tune down 1 Step)

Enjoy!!!

Intro (guitar 1):

D|---------------------------------|
A|---------------------------------|
F|---------0---------0-------0-----|
C|-----4-----4---4-----4-0-4---4---|
G|---7---7-----7---7---------------|
D|-0-------------------------------|

Verse:

|---------------------------------------|
A|--------------------------------------|
F|---------9------------0-----0---0-----|
C|-----9-----9---9----4-----4---4---4-0-|
G|---7---7-----7----5-----5-------------|
C|-0------------------------------------|


Solo (guitar 2):

D|-------------------------------------------------------------------------|
A|-------------------------------------------------------------------------|
F|-------------------7-----------------------------------------------------|
C|-9b-7-9-10-9-7-5-4---5------7-5-4-5-4---------4---4-5-4-5-9-10-7-9-5-7-4-|
G|-----------------------9-10-----------5-7-5-7---7------------------------|
C|-------------------------------------------------------------------------|

D|-15-14----------15-14---------15-14-------17b-15-14-15-17-15-14-12b14b12-|
A|-------15-------------15------------15-----------------------------------|
F|----------14-12---------14------------14---------------------------------|
C|-----------------------------14------------------------------------------|
G|-------------------------------------------------------------------------|
C|-------------------------------------------------------------------------|

Verse 2 :
D|------------------------------------------------|
A|------------------------------------------------|
F|---------9------------0-----0---0------0--------|
C|-----9-----9---9----4-----4---4---4-0--4--------|
G|---7---7-----7----5-----5--------------5--------|
C|-0----------------------------------------------|


Guitar 2 :
D|-15-14-14b--|
A|------------|
F|------------|
C|------------|
G|------------|
C|------------|

Chorus :
D|-------------------------------------|
A|-------------------------------------|
F|---------9------------9-------9------|
C|-----9-----9---9----9---9---9---9----|
G|---7---7-----7---7--------7----------|
C|-0-----------------------------------|

Guitar 2 :
D|-19*-15*----------|
A|---------19*-17*--|
F|------------------|
C|------------------|
G|------------------|
C|------------------|

Solo 2 (guitar 2) :
D|-------------------------------------------17----15-----------17----15--|
A|-15-15b-17-17-19-20-19-15p17b—-12b---15-17----17----17-15-17-----17-----|
F|----------------------------------12------------------------------------|
C|------------------------------------------------------------------------|
G|------------------------------------------------------------------------|
C|------------------------------------------------------------------------|


D|----------17---------------------------------------12-14-15-14b-15-14-15-|
A|-17-15-17----17---------------------------12-13-15-----------------------|
F|---------------------------------11-12-14--------------------------------|
C|-------------------------9-10-12-----------------------------------------|
G|-----------------9-10-12-------------------------------------------------|
C|-------------------------------------------------------------------------|

D|-17-15-17b--14-15-17-19-17-19-21-19-21-22-22b--20-19----19------------|
A|-----------------------------------------------------20----20-19-17b--|
F|----------------------------------------------------------------------|
C|----------------------------------------------------------------------|
G|----------------------------------------------------------------------|
C|----------------------------------------------------------------------|

D|-15-14-12--|
A|-----------|
F|-----------|
C|-----------|
G|-----------|
C|-----------|

Verse 3 :
D|----------------12----------------12---|-15b--|
A|-------15----------------15------------|------|
F|-11-12----11-12----11-12----11-12------|------|
C|---------------------------------------|------|
G|---------------------------------------|------|
C|---------------------------------------|------|

Verse 4 :
D|------------------------------|
A|------------------------------|
F|-22222222222---5-5-----7-7----|
C|-22222222222---5-5-5-5-7-7----|
G|-22222222222---3-3-5-5-5-5----|
C|-------------------3-3--------|

D|-------------------------------|
A|-------------------------------|
F|-----------------------5----7--|
C|-----------------------5----7--|
G|----5p7p5p7----5p7p5p0-3-55-5--|
C|-00---------00-----------33----|

D|-------------------------------------------------|
A|-------------------------------------------------|
F|-----------------------5-------------------------|
C|-----------------------5-030---------------------|
G|----5p7p5p7----5p7p5p0-3-----00-----30----2------|
C|-00---------00------------------030----03---3-0--|

Guitar 2 :
D|-15-14-10--|
A|-----------|
F|-----------|
C|-----------|
G|-----------|
C|-----------|

Solo 3(guitar 1):

D|----------------------------15-17-17b-------|
A|-------------------15-17-19-----------15----|
F|----------14-16-17--------------------------|
C|-14-16-17-----------------------------------|
G|--------------------------------------------|
C|--------------------------------------------|
D|----------------------------15-17-19b-17b---|
A|-------------------15-17-19-----------------|
F|----------14-16-17--------------------------|
C|-14-16-17-----------------------------------|
G|--------------------------------------------|
C|--------------------------------------------|


Guitar 2 :
D|---------------------|
A|---------------------|
F|---------------------|
C|----4-5-----4-5-4-0--|
G|-3-------5-----------|
C|---------------------|

Outro:

D|-------------------------------------|
A|-------------------------------------|
F|-------------------------------------|
C|-2222-2-2222-2-030-------------------|
G|-2222-2-2222-2----00-----30----2-----|
C|--------------------030----03---3-0--|

D|----------------------------------------------------------|
A|----------------------------------------------------------|
F|----------------------------------------7-----------------|
C|-2222-2-2222-2-030-------------------5--7---2222-22-2222--|
G|-2222-2-2222-2----00-----30----2-----5--5---2222-22-2222--|
C|--------------------030----03---3-0—-3--------------------|
Добавлено: 03.05.2012
Другие материалы по этой песне:

Страница создана 03.05.2012
http://primanota.ru/bullet-for-my-valentine/say-goodbye-chords.htm
Привет, Гость.
Предлагаем пройти революционный курс по гитаре.
Подарок от PrimaNota.Ru, забирай!