PrimaNota.ru - самый крупный в мире бесплатный архив песенных текстов, аккордов, табулатур и нот


Born Of Osiris - Exist - текст песни, таба, видео

Регистрация Запомнить меня
Войти через:  Facebook Google Twitter Vk Yandex Mail.ru

Born Of Osiris - Exist - текст песни, таба, видео

Печатать
Просмотров: 700
Уроки эстрадного вокала в Санкт-Петербурге
exist - born of osiris
-----------------------------------------------------------------
Tabbed by:jenna
Email:
Tuning:

E|---------------------------------------------------------------|
B|---------------------------------------------------------------|
G|8--------------------------------------------------------------|
D|-10------------------------------------------------------------|
A|---------------------------------------------------------------|
E|---------------------------------------------------------------|

E|---------------------------------------------------------------|
B|---------------------------------------------------------------|
G|---------8--------------8--------------8-----------------------|
D|-----------10--------------10------------10--------------------|
A|-9-------------9--------------9--------------9-----------------|
E|--7--------------7---------------7---------------7-------------|

E|---------------------------------------------------------------|
B|---------------------------------------------------------------|
G|--------8--11-----------14-------------------14----------------|
D|-----10------13--------------16------------------16------------|
A|---9------------12-----------------15---------------15---------|
E|-7-----------------13------------------13--------------13------|

E|---------------------------------------------------------------|
B|---------------------------------------------------------------|
G|14------------------------14----17-----------------------------|
D|---16------------------16-----------19-------------------------|
A|------15-----------15------------------18----------------------|
E|--------13------13------------------------19-------------------|

E|---------------------------------------------------------------|
B|---------------------------------------------------------------|
G|---------------------------------------------------------------|
D|7--7--7--7--7--7--7--3----3--3--3--3--3--3--3------------------|
A|7--7--7--7--7--7--7--3----3--3--3--3--3--3--3------------------|
E|7--7--7--7--7--7--7--3----3--3--3--3--3--3--3------------------|

E|---------------------------------------------------------------|
B|---------------------------------------------------------------|
G|---------------------------------------------------------------|
D|7--7--7--7--7--7--7--3-----3--3--3--3--3--3--3-----------------|
A|7--7--7--7--7--7--7--3-----3--3--3--3--3--3--3-----------------|
E|7--7--7--7--7--7--7--3-----3--3--3--3--3--3--3-----------------|

E|---------------------------------------------------------------|
B|---------------------------------------------------------------|
G|---------------------------------------------------------------|
D|7--7--7--7--7--7--7--3-----3--3--3--3--3--3--3-----------------|
A|7--7--7--7--7--7--7--3-----3--3--3--3--3--3--3-----------------|
E|7--7--7--7--7--7--7--3-----3--3--3--3--3--3--3-----------------|

E|---------------------------------------------------------------|
B|---------------------------------------------------------------|
G|---------------------------------------------------------------|
D|7--7--7--7--7--7--7--3-----3--3--3--3--3--3--3-----------------|
A|7--7--7--7--7--7--7--3-----3--3--3--3--3--3--3-----------------|
E|7--7--7--7--7--7--7--3-----3--3--3--3--3--3--3-----------------|

E|---------------------------------------------------------------|
B|---------------------------6--9--6-----------------------------|
G|------------------------------------7--------------------------|
D|-6--9--0--6----------------------------9---6-------------------|
A|----------------------------------------------7----------------|
E|------------------------------------------------6--0-----------|

E|---------------------------------------------------------------|
B|---------------------------------------------------------------|
G|---------------------------------------------------------------|
D|---------------------------------------------10----------------|
A|----------11----------------9--------12--9---------------------|
E|6-0-9-0------9--6------10-0------10------------9------0---0--0-|



Tablature Notation

h - hammer on 
p - pull off 
b - bend string up
r - release bend
/ - slide up
\ - slide down
v - vibrato (or ~)
t - right hand tap
x - play 'note' with heavy muting
Добавлено: 28.04.2012
Другие материалы по этой песне:

Страница создана 04.04.2012
http://primanota.ru/born-of-osiris/exist-chords.htm
Привет, Гость.
Предлагаем пройти революционный курс по гитаре.
Подарок от PrimaNota.Ru, забирай!