PrimaNota.ru - самый крупный в мире бесплатный архив песенных текстов, аккордов, табулатур и нот


Born Of Osiris - Empires Erased - таба, видео

Регистрация Запомнить меня
Войти через:  Facebook Google Twitter Vk Yandex Mail.ru

Born Of Osiris - Empires Erased - таба, видео

Печатать
Просмотров: 268
----------------------------------------------------------------------------
                         Empires Erased - Born Of Osiris
----------------------------------------------------------------------------
Tabbed by:Steve! :D
Email:therabbit99999@yahoo.com

http://profile.myspace.com/index.cfm?
fuseaction=user.viewprofile&friendid=2241860&MyToken=0a161e3b-4623-4c9d-baaa-
0bef7a1bc936

Tuning: Drop C, dude.

0:00-0:10                       x5
D|-------------------------------|
A|-------------------------------|
F|-------------------------------|
C|-------------------------------|
G|------------------------1------|
C|-1-0-1--2-1--0-1--0-1-2---2-1|

0:10-0:15
D|------------------------------------------------|
A|------------------------------------------------|
F|--------------------------------------------<5>-|
C|-7-----6-----0-0-------0-----------------<5>----|
G|---5-----4---0-0-5-----0--------------<5>-------|
C|-----7-----6-0-0---6-3-0-3-5-6--<5><5>----------|

0:15-0:24
D|---------------------------------|
A|---------------------------------|
F|---------------------------------|
C|-7-----0-0--------------0-0------|
G|---5---0-0-(x4)---3-----0-0-(x4)-|
C|-----7-0-0----------6-5-0-0------|


0:25
Ummmmm

0:27-0:35    Not exact, but you get the idea.
D|----------------------------------------------|
A|----------------------------------------------|
F|----------------------------------------------|
C|----------------------------------------------|
G|-04-0022334-0022334-0022334-4-0022334-0022334-|
C|-0--002233--002233--002233----002233--002233--|
P.M.  ......  ......  ......    ......  ......

D|----------------------------------------------|
A|----------------------------------------------|
F|----------------------------------------------|
C|----------------------------------------------|
G|-03-0011223-0011223-0011223-3-0011223-0011223-|
C|-0--001122--001122--001122----001122--001122--|
P.M.  ......  ......  ......    ......  ......

Добавлено: 22.03.2012
Другие материалы по этой песне:

Страница создана 22.03.2012
http://primanota.ru/born-of-osiris/empires-erased-chords.htm
Привет, Гость.
Предлагаем пройти революционный курс по гитаре.
Подарок от PrimaNota.Ru, забирай!