PrimaNota.ru - самый крупный в мире бесплатный архив песенных текстов, аккордов, табулатур и нот


Born Of Osiris - Brace Legs - таба, видео

Регистрация Запомнить меня
Войти через:  Facebook Google Twitter Vk Yandex Mail.ru

Born Of Osiris - Brace Legs - таба, видео

Печатать
Просмотров: 292
Уроки эстрадного вокала в Санкт-Петербурге
This is a tab for the "Jazz Guitar Solo" part at about 1:05 of Brace Legs. I love this 
of the song, so I tabbed it out. The first 3 notes are a 3 string sweep.


D-----13-12-8h10-10-13-17-15-13-12--------------|
A---15----------------------------13------------|
F-14--------------------------------------------|
C-----------------------------------------------|
G-----------------------------------------------|
C-----------------------------------------------|

And the chords over it are these chords..

D-----------|
A-----------|
F-----------|
C-10--7-----|
G-8---5-----|
C-8---5-----|
Добавлено: 09.07.2012
Другие материалы по этой песне:

Страница создана 16.03.2012
http://primanota.ru/born-of-osiris/brace-legs-chords.htm
Привет, Гость.
Предлагаем пройти революционный курс по гитаре.
Подарок от PrimaNota.Ru, забирай!