PrimaNota.ru - самый крупный в мире бесплатный архив песенных текстов, аккордов, табулатур и нот


Born Of Osiris - Machine - таба, видео

Регистрация Запомнить меня
Войти через:  Facebook Google Twitter Vk Yandex Mail.ru

Born Of Osiris - Machine - таба, видео

Печатать
Просмотров: 523
Born of Osiris - Machine
Album - Tomorrow We Die Alive (2013)
Transcribed by Hardlycore

Tuning - Drop C (C G C F A D)

GTR I (Left) - C G C F A D
GTR II (Right) - C G C F A D
GTR III (Center) - C G C F A D
GTR IV (Center) - C G C F A D

*Note: If you like this tab, please take a second to rate it.*

[INTRO/CHORUS]

GTR III (riff A)
D|-----------------------------------------------------------------|
A|-----------------------------------------------------------------|
F|----7-7---------7-7---------7-7---------7-7---------7-7-9-9-10-10|
C|0-0-----8-8-7-7-----7-7-8-8-----8-8-7-7-----8-8-7-7--------------|
G|-----------------------------------------------------------------|
C|-----------------------------------------------------------------|
PM. . . . . . . . . . . . . . . . . . . . . . . . . . . . . . . . .


GTR I & II (riff B)
D||---------------------------------------------------------------------|
A||---------------------------------------------------------------------|
F||---------------------------------------------------------------------|
C||---------------------------------------------------------------------|
G||-0-0-0-0-0-0-0-0-0-0--------------0-0------------------------0-0-0-0-|
C||-0-0-0-0-0-0-0-0-0-0--------------0-0------------------------0-0-0-0-|
PM  . . . . . . . . . .              . .                        . . . .

GTR I & II (riff B cont.)
D|------------------------------------------------------------||
A|------------------------------------------------------------||
F|------------------------------------------------------------||
C|------------------------------------------------------------|| x4
G|-0-0-0-0-0-0-0-0-0-0--------------0-0----------0-0----------||
C|-0-0-0-0-0-0-0-0-0-0--------------0-0----------0-0----------||
PM . . . . . . . . . .              . .          . .

GTR III riff A x4 (3rd time thru riff B)

[VERSE]

GTR III (Sitar arraigned for guitar)
D|-----------------------------------------------------|
A|-----------------------------------------------------|
F|8--7--11--8--7--10--8--11--8--7--11--8--7--10--8--7--|
C|-----------------------------------------------------|
G|-----------------------------------------------------|
C|-----------------------------------------------------|

GTR I & II (riff C)
D||-----------------------------------------------------|
A||-----------------------------------------------------|
F||-----------------------------------------------------|
C||-----------------------------------------------------|
G||-0-0---0-0----0000--0000----0-0---0-0---0000----0000-|
C||-0-0---0-0----0000--0000----0-0---0-0---0000----0000-|
PM  . .   . .    ....  ....    . .   . .   ....    ....

GTR I & II (riff C cont.)
D|---------------------------------------||
A|---------------------------------------||
F|---------------------------------------||
C|---------------------------------------|| x4
G|-0-0---0-0----0000--0000-----0-0-------||
C|-0-0---0-0----0000--0000-----0-0-7--4--||
PM . .   . .    ....  ....     . .


GTR III (riff D)
D|--------------------------------------------------------------------------||
A|--------------------------------------------------------------------------||
F|--------------------------------------------------------------------------||
C|--------------------------------------------------------------------------|| x2
G|--------------------------------------------------------------------------||
C|0-0-/12-11-0-7-8-0-0-1-0-1-0-5-4-0-8-0-7-0-0-11b-0-11b---0--0---0-0-7--4--||


  GTR I riff D2
D|---------------------------------------------------------------|
A|---------------------------------------------------------------|
F|---------------------------------------------------------------|
C|---------------------------------------------------0-----------|
G|------------------------------------------------0000---0--0--0-|
C|---0-0-4b---0-0-4--5-/8--7--5-------------------0000---0--0--0-|
 |PM . .      . .                                 ...    .  .  .
 |
 |GTR II riff D2
D|---------------------------------------------------------------|
A|---------------------------------------------------------------|
F|---------------------------------------------------------------|
C|---------------------------------------------------0-----------|
G|------------------------------------------------0000---0--0--0-|
C|---0-0-4b---0-0-7--8-/12--11--8-----------------0000---0--0--0-|
  PM . .      . .                                 ...    .  .  .


[PRE-CHORUS]

  GTR III (riff E)
D|------------13-17p13----------13h17t18p17p13----------13-17-15-13------------------------------|
A|---------15----------15----15----------------15----15-------------17-15-14---------------------|
F|------14----------------14----------------------14-------------------------15-14-12------------|
C|---15-------------------------------------------------------------------------------15-14-12---|
G|17-------------------------------------------------------------------------------------------16|
C|-----------------------------------------------------------------------------------------------|
 |
 |GTR I & II (riff F)
D|-----------------------------------------------------------------------------------------------|
A|-----------------------------------------------------------------------------------------------|
F|-----------------------------------------------------------------------------------------------|
C|-----------------------------------------------------------------------------------------------|
G|-0-0---0-0--------------------------------------------------0-0---------------------------0-0--|
C|-0-0---0-0--------------------------------------------------0-0---------------------------0-0--|
 PM. .   . .                                                  . .                           . .

  GTR III (riff E cont.)
D|------------13-17p13----------13h17t18p17p13----------13-17-15-13------------------------------||
A|---------15----------15----15----------------15----15-------------17-15-14---------------------||
F|------14----------------14----------------------14-------------------------15-14-12------------||
C|---15-------------------------------------------------------------------------------15-14-12---||
G|17-------------------------------------------------------------------------------------------16||
C|-----------------------------------------------------------------------------------------------||
 |
 |GTR I & II (riff F cont.)
D|-----------------------------------------------------------------------------------------------||
A|-----------------------------------------------------------------------------------------------||
F|-----------------------------------------------------------------------------------------------||
C|-----------------------------------------------------------------------------------------------||
G|----0-0---------------------------------------------------0-0----0-0-------------------0-0-----||
C|----0-0---------------------------------------------------0-0----0-0-------------------0-0-0--0||
 PM   . .                                                   . .    . .                   . .

Repeat riff E & riff F 3 more times


GTR IV (riff G) This harmony comes in 2nd time thru riff E
D|------------17-20p17----------17h20t22p20p17----------17-20-18-17------------------------------||
A|---------18----------18----18----------------18----18-------------20-18-17---------------------||
F|------19----------------19----------------------19-------------------------19-18-15------------||
C|---19-------------------------------------------------------------------------------19-17-15---||
G|20-------------------------------------------------------------------------------------------19||
C|-----------------------------------------------------------------------------------------------||


[INTRO/CHORUS]
GTR III riff A

[CHORUS]
GTR I & II riff B x4
GTR III riff A x4 (3rd time thru riff B)

[VERSE]

GTR I & II riff H (w/GTR III riff D)
D|-------------------------|--------------------|----------------------|-----------------------|
A|-------------------------|--------------------|----------------------|-----------------------|
F|-------------------------|--------------------|----------------------|-----------------------|
C|-------------------------|--------------------|----------------------|-----------------------|
G|-0-0---0-0------0-0---0-0|----0-0---0-0----0-0|---0-0-----0-0---0-0--|--0-0---0-0------------|
C|-0-0---0-0------0-0---0-0|----0-0---0-0----0-0|---0-0-----0-0---0-0--|--0-0---0-0---0-0-7--4-|
PM . .   . .      . .   . .     . .   . .    . .    . .     . .   . .     . .   . .   . .

GTR I & II riff C x4
GTR III riff D x2 (3rd time thru riff C)

GTR I & II riff D2

[PRE-CHORUS]
GTR I & II riff E x4
GTR III riff F x4

GTR IV riff G x2 (3rd time thru riff E)

[INTERLUDE]

GTR I & II riff B x2

[INTRO/CHORUS]
GTR III riff A

[CHORUS]
GTR I & II riff B x4
GTR III riff A x4 (3rd time thru riff B)

[OUTRO]

GTR I & II riff B x 2
GTR II riff A x 4

GTR I & II riff I
D|----------------------------------------------------------------|
A|----------------------------------------------------------------|
F|----------------------------------------------------------------|
C|----------------------------------------------------------------|
G|-0-0-0-0-0-0-0-0-0-0--------------0-0----------0-0------0-0-0-0-|
C|-0-0-0-0-0-0-0-0-0-0--------------0-0----------0-0------0-0-0-0-|
PM . . . . . . . . . .              . .          . .      . . . .

[END]

--------------------[[[LEGEND]]]----------------------

p - Pull off
h - Hammer-on
b - bend note up
t - Tapped note (tap the note directly after the ‘t’)
/ - slide up to note
PM . - Palm Mute notes above the .
|| - indicates the end of a repeated part
x4 - indicates a riff that is repeated 4 times
Добавлено: 06.05.2014
Другие материалы по этой песне:

Страница создана 23.06.2013
http://primanota.ru/born-of-osiris/machine-chords.htm
Привет, Гость.
Предлагаем пройти революционный курс по гитаре.
Подарок от PrimaNota.Ru, забирай!