PrimaNota.ru - самый крупный в мире бесплатный архив песенных текстов, аккордов, табулатур и нот


Bolt Thrower - Killchain - бас-таба, видео

Регистрация Запомнить меня
Войти через:  Facebook Google Twitter Vk Yandex Mail.ru

Bolt Thrower - Killchain - бас-таба, видео

Печатать
Просмотров: 98
Уроки эстрадного вокала в Санкт-Петербурге
Tabbed by: 6METAL6BASSIST6
E-mail: petergriffinav@gmail.com

Tuning: CFA#D#

0:06 fade in.

D#|----------------------------------------------------------------|
A#|----------------------------------------------------------------| x5
F |1---------------------------------------------------------------|
C |--------0-0-0-0-0-0-0-0-0-0-0-0-0-0-0-0-0-0-0-0-0-0-0-0-0-------|

D#|----------------------------------------------------------------|
A#|----------------------------------------------------------------|
F |1-------------------------------1-----------1-----------1-------|
C |--------0-0-0-0-0-0-0-0-0-0-0-----------------------------------|

D#|----------------------------------------------------------------|
A#|----------------------------------------------------------------|
F |----------------------------------------------------------------|
C |----------------------------------------------------------------|

D#|----------------------------------------------------------------|
A#|----------------------------------------------------------------|
F |----------------------------------------------------------------|
C |----------------------------------------------------------------|

0:31

D#|----------------------------------------------------------------|.
A#|----------------------------------------------------------------|.
F |--------------------------5-------------------------------------|.
C |0---0---0-0---0---0-0---0-------0---0---0-0---0---0-0---0-1-----|.
                                                                    . x4
D#|----------------------------------------------------------------|.
A#|----------------------------------------------------------------|.
F |--------------------------5-------------------------------1-----|.
C |0---0---0-0---0---0-0---0-------0---0---0-0---0---0-0---0-------|.

1:08

D#|----------------------------------------------------------------|
A#|----------------------------------------------------------------| x4
F |--------------------------------2-----------2---1---------------|
C |0-----------------------0---3---------3-------------------------|

1:25

D#|----------------------------------------------------------------|.
A#|----------------------------------------------------------------|.
F |--------------------------5-------------------------------------|.
C |0---0---0-0---0---0-0---0-------0---0---0-0---0---0-0---0-1-----|.
                                                                    . x4
D#|----------------------------------------------------------------|.
A#|----------------------------------------------------------------|.
F |--------------------------5-------------------------------1-----|.
C |0---0---0-0---0---0-0---0-------0---0---0-0---0---0-0---0-------|.

2:00

D#|----------------------------------------------------------------|
A#|----------------------------------------------------------------| x4
F |--------------------------------2-----------2---1---------------|
C |0-----------------------0---3---------3-------------------------|

2:18

D#|----------------------------------------------------------------|
A#|----------------------------------------------------------------|
F |--------------------------------------------------------5-7-8---|
C |1---0---0-------------------------------------------------------|

2:23

D#|----------------------------------------------------------------|
A#|----------------------------------------------------------------| x3
F |8-------------------------------------------------------5-7-8---|
C |----0---0---0-1---0---0---0-1-0-1---0---0---0-1---0-------------|

D#|----------------------------------------------------------------|
A#|----------------------------------------------------------------| x2
F |8-------------8-------------------------------8---------5-7-8---|
C |----0---0---0-----0---0---0-1-0-1---0---0---0-----0-------------|

D#|----------------------------------------------------------------|
A#|----------------------------------------------------------------| x2
F |8-------------------------------------------------------5-7-8---|
C |----0---0---0-1---0---0---0-1-0-1---0---0---0-1---0-------------|

2:55

D#|----------------------------------------------------------------|
A#|----------------------------------------------------------------| x4
F |--------------------------------2-----------2---1---------------|
C |0-----------------------0---3---------3-------------------------|

3:12

D#|----------------------------------------------------------------|.
A#|----------------------------------------------------------------|.
F |--------------------------5-------------------------------------|.
C |0---0---0-0---0---0-0---0-------0---0---0-0---0---0-0---0-1-----|.
                                                                    . x2
D#|----------------------------------------------------------------|.
A#|----------------------------------------------------------------|.
F |--------------------------5-------------------------------1-----|.
C |0---0---0-0---0---0-0---0-------0---0---0-0---0---0-0---0-------|.

3:30

D#|----------------------------------------------------------------|
A#|----------------------------------------------------------------| x4
F |--------------------------------1-------------------------------|
C |0---------------------------------------------------------------|

3:48

D#|----------------------------------------------------------------|
A#|----------------------------------------------------------------| x8
F |--------------------------1-------------------------------1-----|
C |0---0---0-0---0---0-0---0-------0---0---0-0---0---0-0---0-------|

D#|----------------------------------------------------------------|
A#|----------------------------------------------------------------| Until fadeout.
F |1-------------------------1-----1-------------------------1-----|
C |----0---0-0---0---0-0---0-----------0---0-0---0---0-0---0-------|
Добавлено: 26.08.2015
Другие материалы по этой песне:

Страница создана 10.03.2012
http://primanota.ru/bolt-thrower/killchain-chords.htm
Привет, Гость.
Предлагаем пройти революционный курс по гитаре.
Подарок от PrimaNota.Ru, забирай!