PrimaNota.ru - самый крупный в мире бесплатный архив песенных текстов, аккордов, табулатур и нот


Bolt Thrower - Zeroed - аккорды и текст, таба, видео

Регистрация Запомнить меня
Войти через:  Facebook Google Twitter Vk Yandex Mail.ru

Bolt Thrower - Zeroed - аккорды и текст, таба, видео

Печатать
Просмотров: 181
Zeroed
Bolt Thrower
Author/Artist: Bolt-Thrower
Title: Zeroed
Album: Mercenary
Transcribed by: Bamid Jahanfar
Email: hamid@die-signer.de
 
Drop C# tuning:

Low to high: C# G# C# F# A# D#

That means tune all strings a half step down and then tune the low E string down

 one hole step

If anyone have questions or other Bolt Thrower tabs contact me
Check also www.aggressivity.de, homepage of my band and visit the guestbook.

------------------------------------------------------------------------------
------------------------------------------------------------------------------
------------------------------------------------------------------------------
--------4-3------0-2-3--------------------------------------------------------
-2-0-2--2-1-------------------------------------------------------------------
-2-0-2------------------------------------------------------------------------
 Intro (16x)                                       

------------------------------------------------------------------------------
------------------------------------------------------------------------------
------2-1----------------------2-1--------------------------------------------
--2-------0-2-3-2/-3--6----2-------0-2-3-2/-5--3------------------------------
--2----------------3--6----2----------------5--3------------------------------
--2----------------3--6----2----------------5--3------------------------------
 Riff A (2x)                                       

------------------------------------------------------------------------------
------------------------------------------------------------------------------
------------------------------------------------------------------------------
------------------------------------------------------------------------------
------------------------------------------------------------------------------
--22222222-3333-22222222-5555-22222222-3333-22222222-5533---------------------
 Riff B (2x) the number doesn't matter, listen to CD for timing. All palm     

------------------------------------------------------------------------------
------------------------------------------------------------------------------
------2-1----------------------2-1--------------------------------------------
--2--------0-2-3-2/-3--6----2------0-2-3-2/-5--3------------------------------
--2-----------------3--6----2---------------5--3------------------------------
--2-----------------3--6----2---------------5--3------------------------------
 mute A w/verse (4x)                               

------------------------------------------------------------------------------
------------------------------------------------------------------------------
------------------------------------------------------------------------------
------------------------------------------------------------------------------
----------------------------------3-2-0-2-------------------------------------
---22222222-0000000-22222222-0000-3-2-0-2-------------------------------------
 Riff C (8x)                                       

------------------------------------------------------------------------------
------------------------------------------------------------------------------
-----2-1---------------------2-1----------------------------------------------
--2------0-2-3-2/-3--6----2------0-2-3-2/-5--3--------------------------------
--2---------------3--6----2---------------5--3--------------------------------
--2---------------3--6----2---------------5--3--------------------------------
 Riff A w/verse (4x)                               

------------------------------------------------------------------------------
------------------------------------------------------------------------------
------------------------------------------------------------------------------
------------------------------------------------------------------------------
-----------------------------------3-2-0-2------------------------------------
---22222222-00000000-22222222-0000-3-2-0-2------------------------------------
 Riff C w/refrain (8x)                             

------------------------------------------------------------------------------
------------------------------------------------------------------------------
------------------------------------------------------------------------------
------------------3v----------------------------------------------------------
---3-2-0--3-3--2--------------------------------------------------------------
---3-2-0--3-3--2--------------------------------------------------------------
 Riff D (4x)                                       

------------------------------------------------------------------------------
------------------------------------------------------------------------------
------------------------------------------------------------------------------
------------------3-2-0---0---------------------------------------------------
---3-2-0--3-3--2--------1---1-------------------------------------------------
---3-2-0--3-3--2--------------------------------------------------------------
 Riff E (4x) + Riff E w/verse (4x)                          

------------------------------------------------------------------------------
------------------------------------------------------------------------------
------------------------------------------------------------------------------
------------------------------------------------------------------------------
---8--3-2-----/6---3-2-------------------------------------------------------
---8--3-2-----/6---3-2-------------------------------------------------------
 Riff F (4x)                                       

------------------------------------------------------------------------------
------------------------------------------------------------------------------
--/3-3-3-1---3-1----1-1-1-0---3-1-------------------------------------------
------------2-----2-----------2-----2-----------------------------------------
------------------------------------------------------------------------------
------------------------------------------------------------------------------
 Riff G  Gtr.I (4x) & Riff F  Gtr.II (4x)                   

------------------------------------------------------------------------------
------------------------------------------------------------------------------
------------------------------------------------------------------------------
------------------------------------------------------------------------------
------------------------------------------------------------------------------
--3333-0000-2222-2222--3333-6-3-6-2222-2222-----------------------------------
 Riff B (2x) Gtr.I&II  + Riff B (6x) Gtr.I & Solo Gtr.II             

------------------------------------------------------------------------------
------------------------------------------------------------------------------
------------------------------------------------------------------------------
------------------------------------------------------------------------------
----------------------------5---5---------------------------------------------
--3333-0000-2222-2222--3333---3---2222-2222-----------------------------------
 Riff B (2x) Gtr. I&II                             

------------------------------------------------------------------------------
------------------------------------------------------------------------------
------------------------------------------------------------------------------
----------------3v------------------------------------------------------------
--3-2-0--3-3--2---------------------------------------------------------------
--3-2-0--3-3--2---------------------------------------------------------------
 Riff D (4x)
Добавлено: 23.01.2014
Другие материалы по этой песне:

Страница создана 08.04.2012
http://primanota.ru/bolt-thrower/zeroed-chords.htm
Привет, Гость.
Предлагаем пройти революционный курс по гитаре.
Подарок от PrimaNota.Ru, забирай!