PrimaNota.ru - самый крупный в мире бесплатный архив песенных текстов, аккордов, табулатур и нот


Bolt Thrower - Cenotaph - текст песни, таба, видео

Регистрация Запомнить меня
Войти через:  Facebook Google Twitter Vk Yandex Mail.ru

Bolt Thrower - Cenotaph - текст песни, таба, видео

Печатать
Просмотров: 213
Авторы музыки: Bolt Thrower

To play this song in tune with the CD you first have to tune your guitar down
to D flat (C#).  I have written the transcription for "drop D" tuning as this
tuning still keeps the first five strings fairly tight.  Bolt Thrower actually
tune all their strings down, but you need a special whammy bar system to keep
reasonable tension on the strings.  I know because I asked them when they came to
Perth.

For anyone who doesn't know how to de-tune in this way, this is how I do it...
    - First tune the whole guitar down half a step (one semitone) to E flat
    - Drop the 6th (low E) string down to D flat by tuning it to the note
      played by holding the 5th string at the 5th fret.
    - When you have finished, the following chord should be in tune with a
      low E5 power chord...

       E5
    eb|----
    Bb|----
    Gb|----
    Db|-3--
    Ab|-3--
    Db|-3--

Notation: (n) means that this note is carried over from the last bar.
          a . under a note means that it is to be played stoccato.

It's fairly hard to show timing in TAB, but I've tried to space the notes to
give an indication of how long each should be held. eg. 0 0 0 0 means 8th note
downstrokes, 00000000 means 16th note alternate picking.  Anyway, enough
theory, heres the song.


...fade in                     play 8x
eb|-----------------|-----------------|
Bb|-----------------|-----------------|
Gb|*----------------|----------------*|
Db|*----------------|----------------*|
Ab|-6---------------|-----------------|
Db|-6---0-0-0-0-0-0-|-0-0-0-0-0-0-0-0-|
        pm...........................<


                                                                   play 4x
|-----------------|-----------------|-------------------|-----------------|
|-----------------|-----------------|-------------------|-----------------|
|*----------------|-----------------|-------------------|----------------*|
|*----------------|-----------------|-------------------|----------------*|
|-1-------------1-|---------------3-|-(3)-4-------------|-8h9p8-6-8h9p8---|
|-1-0-0-0-0-0-0-1-|-0-0-0-0-0-0-0-3-|-(3)-4-0-0-0-0-0-0-|-----------------|
    pm.........<    pm...........<          pm.........<


half time (Riff 1.)                  (Riff 2.)
 gtr 1.                      play 4x                               play 4x
|-----------------|-----------------|-------------------|-----------------|
|-----------------|-----------------|-------------------|-----------------|
|*----------------|----------------*|*------------------|----------------*|
|*0---------------|----------------*|*0-----6-7---------|----------------*|
|-0---------------|-8h9p8-6-8h9p8---|-0-----------------|-8h9p8-6-8h9p8---|
|-0---------------|-----------------|-0-----------------|-----------------|
|gtr 2.
|-----------------|-----------------|-------------------|-----------------|
|-----------------|-----------------|-------------------|-----------------|
|*----------------|----------------*|*------------------|----------------*|
|*0-----6-7-------|-(7)------------*|*0-----6-7---------|----------------*|
|-0---------------|-----------------|-0-----------------|-8h9p8-6-8h9p8---|
|-0---------------|-----------------|-0-----------------|-----------------|


normal time
 (Riff 3.)                     play 8x
|------------------|------------------|
|------------------|------------------|
|*-----------------|-----------------*|
|*-----------------|-----------------*|
|------------------|------------------|
|-0000006644000000-|-4444333300333333-|
  pm.................................<


half time
 gtr 1.                      play 4x
|-----------------|-----------------|
|-----------------|-----------------|
|*------6-4-0-----|-4---3---0-3----*|
|*0---------------|----------------*|
|-0---------------|-----------------|
|-0---------------|-----------------|
|gtr 2.
|-----------------|-----------------|
|-----------------|-----------------|
|*----------------|----------------*|
|*0---------------|-(0)------------*|
|-0---------------|-(0)-------------|
|-0---------------|-(0)-------------|


                             play 4x
|-----------------|-----------------|-----------------|
|-----------------|-----------------|-----------------|
|*----------------|----------------*|-----------------|
|*----------------|----------------*|-----------------|
|-0-----6-4-0-----|-4---3---0-3~----|-0---------------|
|-0-----6-4-0-----|-4---3---0-3~----|-0---------------|
                                      .      drum fill


double time
 (Riff 4.)                     play 4x
|------------------|------------------|
|------------------|------------------|
|*-----------------|-----------------*|
|*-----------------|-----------------*|
|------------------|------------------|
|-0000004411111144-|-3333331133113344-|
  pm.................................<

Play (Riff 3.) 4 times.

Play (Riff 4.) 4 times.

Play (Riff 3.) 4 times.

half time
Play (Riff 1.) 4 times.

normal time                                              play 8x and fade...
|------------------|-----------------|------------------|------------------|
|------------------|-----------------|------------------|------------------|
|------------------|-----------------|------------------|------------------|
|------------------|-----------------|------------------|------------------|
|-------6-7--------|-3-4-3-0-3-4-3---|-6----------------|------------------|
|-0000006-7-000000-|-3-4-3-0-3-4-3---|-6-00000000000000-|-0000000000000000-|
  pm....<   pm....<                      pm...............................<

p.s Lookout for Suffer the Children by Napalm Death, coming soon.
If you have transcribed some Grindcore songs then put them on the "Net", we
really need some more heavy shit, instead of these boring old rock'n'roll songs.

H.Bredow@cowan.edu.au
Добавлено: 27.04.2012
Другие материалы по этой песне:

Страница создана 20.03.2012
http://primanota.ru/bolt-thrower/cenotaph-chords.htm
Привет, Гость.
Предлагаем пройти революционный курс по гитаре.
Подарок от PrimaNota.Ru, забирай!