PrimaNota.ru - самый крупный в мире бесплатный архив песенных текстов, аккордов, табулатур и нот


Blue Oyster Cult - Moon Crazy - текст песни, таба, видео

Регистрация Запомнить меня
Войти через:  Facebook Google Twitter Vk Yandex Mail.ru

Blue Oyster Cult - Moon Crazy - текст песни, таба, видео

Печатать
Просмотров: 181
Уроки эстрадного вокала в Санкт-Петербурге
-------------------------------------------------------------------------------
                             Moon Crazy - Blue Öyster Cult
-------------------------------------------------------------------------------

Tabbed by: Blooker


Key:

************************************

| /   slide up
| \   slide down
| h   hammer-on
| p   pull-off
| ~   vibrato
| +   harmonic
| x   Mute note
| b   Bend
| pb  Pre-bend
| br  Bend release
| pbr Pre-bend release
| brb Bend release bend

************************************


e|---------------11br--------------------9-----------------------------------------------------|
B|-12~--12br12~--------x-12--12br12--9-----9p7s5-------9p7s5---------------5-------------------|
G|-----------------------------------------------6-6/--------6-6---4s6-4-----6-4h6----6--------|
D|-----------------------------------------------------------------------6---------------------|
A|---------------------------------------------------------------------------------4-----------|
E|---------------------------------------------------------------------------------------------|

e|------------------------------------------------------12--12pbr11-----------------11b--11--9-|
B|-----------------------------s9--7---------------10-9--------------12-9--12b-12-9------------|
G|-------------------------------------6----9/-------------------------------------------------|
D|--------2---2h4--2b-4--2---------------------------------------------------------------------|
A|----2h4---4------------0---------------------------------------------------------------------|
E|-s4------------------------------------------------------------------------------------------|

e|-----------------------------------------------9--------------|
B|-12br9-9------12b-12br9-9-----------s9--7s5------9--7~--------|
G|------------------------------9/------------6-----------------|
D|----------11---------------11---------------------------------|
A|--------------------------------------------------------------|
E|--------------------------------------------------------------|

e|-----------------------7--------------------------------------|
B|---5h7p5----7b-7b--7b----7pbr-7p5-7-5----------5--------------|
G|---------6----------------------------6--4-6p4---6/-----------|
D|--------------------------------------------------------------|
A|--------------------------------------------------------------|
E|--------------------------------------------------------------|
Добавлено: 21.03.2012
Другие материалы по этой песне:
  • Аккорды и текст

Страница создана 05.03.2012
http://primanota.ru/blue-oyster-cult/moon-crazy-chords.htm
Привет, Гость.
Предлагаем пройти революционный курс по гитаре.
Подарок от PrimaNota.Ru, забирай!