PrimaNota.ru - самый крупный в мире бесплатный архив песенных текстов, аккордов, табулатур и нот


Blue Oyster Cult - She's as Beautiful as a Foot - текст песни, таба, видео

Регистрация Запомнить меня
Войти через:  Facebook Google Twitter Vk Yandex Mail.ru

Blue Oyster Cult - She's as Beautiful as a Foot - текст песни, таба, видео

Печатать
Просмотров: 130
Авторы: Albert Bouchard, Richard Meltzer, Allen Lanier

                          Blue Oyster Cult	
                          Blue Oyster Cult
                    She's as Beautiful as a Foot
                       (tabed by C.J. Padiak)


--------------------------------------------------------------------------
--------------------------------------------------------------------------
--------------------------------------------------------------------------
-----13-13-13-13-13-13-13p12-12-12----------13-13-13-13-13-13-13p12-12-12-
--------------------------------------------------------------------------
--------------------------------------------------------------------------
     she's as beautiful as a foot           she's as beautiful as a foot



--------------------------------------------------------------------------
--------------------------------------------------------------------------
--------------------------------------------------------------------------
-----12----12-------------------------------------------------------------
--------15----15-14--------14-15-14-12------------------------------------
--------------------------------------------------------------------------
   she heard someone say      the other day


--------------------------------------------------------------------------
15-14-10--------18-17-13--------13-12-13-12-------------------------------
---------11--------------14-----------------14-14-14-14-14-14-11h12-14----
------------12--------------15--------------------------------------------
--------------------------------------------------------------------------
--------------------------------------------------------------------------
she's as beautiful,
                oh so beautiful,beautiful as a foot
     
Добавлено: 23.11.2013
Другие материалы по этой песне:
  • Аккорды и текст

Страница создана 31.03.2012
http://primanota.ru/blue-oyster-cult/shes-as-beautiful-as-a-foot-chords.htm
Привет, Гость.
Предлагаем пройти революционный курс по гитаре.
Подарок от PrimaNota.Ru, забирай!