PrimaNota.ru - самый крупный в мире бесплатный архив песенных текстов, аккордов, табулатур и нот


Blue Oyster Cult - Searchin' For Celine - текст песни, бас-таба, видео

Регистрация Запомнить меня
Войти через:  Facebook Google Twitter Vk Yandex Mail.ru

Blue Oyster Cult - Searchin' For Celine - текст песни, бас-таба, видео

Печатать
Просмотров: 106
This is my first tab, I know it's most likely to be off, but I would 
love to hear corrections so I have the actual bass part to
 the song, because I can't find a tab anywhere.





||-----------||
||-----------||
||--3--2--0--||
||-----------||


||---------------------------------------------------------------------------------||
||-------2-------2--2---2-0-2------2---2-------2-------2---2-------2---------------||
||------------------------------------------------------------------------2---2----||
||--1-3-----3p1-------3-------3p1----3----1-3-----3p1----3----1-3----3p1----3------||

                                x4
||--------------------------------||
||*-------2-------2---2----------*||
||*--1-3----3p1-----1------------*||
||--------------------------------||


||-----------------------------------|------------------------------------------|| 
||-----------------------------------|------------------------------------------|| 
||-0-0-0-0-5-5-5-5-3-3-3-3-3-2-3-2-0-|-3-3-3-3-5-5-5-5-2-2-2-2-2-3-3-2-3-2-0----|| 
||-----------------------------------|------------------------------------------|| 
|
||-------------------------------------|------------------||
||-------------------------------------|-----2-2--2--0----||
||-0-0-0-0-3-3-3-3-2-2-2-2-2-3-2-3-2-0-|-2----------------||
||-------------------------------------|------------------||


||-----------||
||-----------||
||--0---2-3--||
||-----------||

                          x4
||--------------------------||
||*-------2-------2---2----*||
||*--1-3----3p1-----1------*||
||--------------------------||


||-----------------------------------|------------------------------------------|| 
||-----------------------------------|------------------------------------------|| 
||-0-0-0-0-5-5-5-5-3-3-3-3-3-2-3-2-0-|-3-3-3-3-5-5-5-5-2-2-2-2-2-3-3-2-3-2-0----|| 
||-----------------------------------|------------------------------------------|| 
|
||-------------------------------------|------------------||
||-------------------------------------|-----2-2--2--0----||
||-0-0-0-0-3-3-3-3-2-2-2-2-2-3-2-3-2-0-|-2----------------||
||-------------------------------------|------------------||


||-----------||
||-----------||
||--0---2-3--||
||-----------||

Piano Break


  (1:09)

||-----------------------------------|----------------------------------------------|| 
||-----------------------------------|----------------------------------------------|| 
||-----------------------------------|--/7------------------7------------------7----|| 
||--0------------------0-------------|----------------------------------------------|| 
|
||------------------------------------------------------------------------------------||
||-----------------------------------------------------------------------2-2--2--0----||
||----------------7============/2---2-2-2-2-2-2-2-2-2-2-2-2-2-2-2-2--2----------------||
||------------------------------------------------------------------------------------||


||-----------||
||-----------||
||--0---2-3--||
||-----------||

Under Guitar Solo
                          x4
||--------------------------||
||*-------2-------2---2----*||
||*--1-3----3p1-----1------*||
||--------------------------||


||-----------------------------------|------------------------------------------|| 
||-----------------------------------|------------------------------------------|| 
||-0-0-0-0-5-5-5-5-3-3-3-3-3-2-3-2-0-|-3-3-3-3-5-5-5-5-2-2-2-2-2-3-3-2-3-2-0----|| 
||-----------------------------------|------------------------------------------||
|
||--------------------------------------------------------||
||-------------------------------------------2-2--2--0----||
||-0-0-0-0-3-3-3-3-2-2-2-2-2-3-2-3-2-0-|-2----------------||
||--------------------------------------------------------||





||-----------||
||-----------||
||--0---2-3--||
||-----------||

                          x4
||--------------------------||
||*-------2-------2---2----*||
||*--1-3----3p1-----1------*||
||--------------------------||


||-----------------------------------|------------------------------------------||
||-----------------------------------|------------------------------------------|| 
||-0-0-0-0-5-5-5-5-3-3-3-3-3-2-3-2-0-|-3-3-3-3-5-5-5-5-2-2-2-2-2-3-3-2-3-2-0----|| 
||-----------------------------------|------------------------------------------|| 
|
||-------------------------------------|-------------------||
||-------------------------------------|------2-2--2--0----||
||-0-0-0-0-3-3-3-3-2-2-2-2-2-3-2-3-2-0-|-2-----------------||
||-------------------------------------|-------------------||


||-----------||
||-----------||
||--0---2-3--||
||-----------||

Another Piano Break


  (2:23)


||-----------------------------------|----------------------------------------------||
||-----------------------------------|----------------------------------------------||
||-----------------------------------|--/7------------------7----------------5h7----||
||--0------------------0-------------|----------------------------------------------|| 
|
||------------------------------------------------------------------------------------||
||-----------------------------------------------------------------------2-2--2--0----||
||--------------5h7============/2---2-2-2-2-2-2-2-2-2-2-2-2-2-2-2-2--2----------------||
||------------------------------------------------------------------------------------||


                                                          Repeat as needed and fade
||---------------------------------------------------------------------------------||
||*-------2---2---2---------2---2---2----------2---2---2---------2----------------*||
||*-----------------------------------------------------------------------0--2----*||
||---1-3----3---3---3/--1-3---3---3---3/---1-3---3---3---3/--1-3---3---------------||
Добавлено: 27.12.2013
Другие материалы по этой песне:
  • Аккорды и текст

Страница создана 06.07.2012
http://primanota.ru/blue-oyster-cult/searchin-for-celine-chords.htm
Привет, Гость.
Предлагаем пройти революционный курс по гитаре.
Подарок от PrimaNota.Ru, забирай!