PrimaNota.ru - самый крупный в мире бесплатный архив песенных текстов, аккордов, табулатур и нот


Blue Oyster Cult - Burnin For You - текст песни, таба, бас-таба, видео

Регистрация Запомнить меня
Войти через:  Facebook Google Twitter Vk Yandex Mail.ru

Blue Oyster Cult - Burnin For You - текст песни, таба, бас-таба, видео

Печатать
Просмотров: 218
Авторы: Richard Meltzer, Donald Roeser

intro

e|------------------------------|
B|---------------8--------------|
G| 9-7-9p7----------9-7-9p7-----| lead & 2nd guitar
D|------------10-------------10-|
A|------------------------------|
E|------------------------------|


2nd half of intro/interlude thing

e|----------------------------------------------------------|
B|------13p12----13------------------------12---------------|
G|12~----------12--9-10-12~---10-9------14-----12-----------|
D|---------------------------------10~----------------------|
A|----------------------------------------------------------|  \
E|----------------------------------------------------------|   \
                                                                \lead guitar
e|-----------------------------------12----------15~~~         -- /
B|---------------------------------------15-----------        --- /
G|-----12-14-------------------14-------------12------       ---- /
D|--14----------14-12-14-14-15----------------------------------- /
A|-----------15-------------------------------------------------- /
E|--------------------------------------------------------------- /


verse
    Am      Em      Dm    Fm      Gm
e|12--12--12--12--10--10--------------------------------------|
B|13--13--12--12--10--10--10---10/12--------------------------| lead guitar
G|14--14--12--12--10--10--10---10/12--------------------------|
D|------------------------10---10/12--------------------------|
A|------------------------------------------------------------| echo effects
E|------------------------------------------------------------|
                               ^
e|------------|guitar 2 play this at the end of the verse,the second time u
B|------------| play it,same time as slide
G|------------|
D|------------|
A|------------|
E|---5b7------|


Chorus:

pt1
e--------------------------------------------|
B--------------------------------------------|
G--------------------------------------------|
D--7\6/7---5--3--3-5-5---7\6/7---5--3--3-5-5-|
A--7\6/7---5--3--3-5-5---7\6/7---5--3--3-5-5-|
E--5\4/5---3--1--1-3-3---5\4/5---3--1--1-3-3-|

pt2
e--------------------------------------------|
B--------------------------------------------|
G---5-------5-5------5-----------------------|
D---5-------5-5------5---3-3---3---3-3---3-3-|
A---3-0---0-3-3--0---3---3-3---3---3-3---3-3-|
E-------3----------3-----1-1---1---1-1---1-1-|

pt3
e-------------------5--(5)--------|
B-------------------6--(6)--------|
G---5---5-----------7--(7)--------|
D---5---5---7---5---7--(7)---0--3-|
A---3---2---7---5---5--(5)---0--3-|
E-----------5---3---5--(5)---0--1-|

     intro-3
 interlude-1
     verse-4
chorus pt1-1
chorus pt2-1
chorus pt3-1  and then it repeats basically....im not tabbing the solo and
chorus pt1-2   the fill things during the chorus
     intro-2
interlude-1
                 http://www.buckdharma.com/Guitar/Burnin4u.pdf, i give all credit to 
they have the solo and such...so  you can go there if you wanna
Добавлено: 15.06.2012
Другие материалы по этой песне:

Страница создана 11.03.2012
http://primanota.ru/blue-oyster-cult/burnin-for-you-chords.htm
Привет, Гость.
Предлагаем пройти революционный курс по гитаре.
Подарок от PrimaNota.Ru, забирай!