PrimaNota.ru - самый крупный в мире бесплатный архив песенных текстов, аккордов, табулатур и нот


Bloodbath - Blood Vortex - текст песни, таба, видео

Регистрация Запомнить меня
Войти через:  Facebook Google Twitter Vk Yandex Mail.ru

Bloodbath - Blood Vortex - текст песни, таба, видео

Печатать
Просмотров: 139
Авторы музыки: Jonas Renkse
Авторы текста: Jonas Renkse
tuning:B E A D G B

Riff 1-A
 1.
|-------------------------------------------|
|-------------------------------------------|
|--------0----------------------------------|both
|---4--4---4-4-4-4--4-4-4-4-----------------|gtrs
|---4------4-4-4-4--4-4-4-4-----------------|
|---2------2-2-2-2--2-2-2-2--0-2-0-3-0-6-5--|
           * * * *  * * * *

end of riff
|------------------|
|------------------|
|------------------|both
|---4-4-4-4-4-4----|gtrs
|---4-4-4-4-4-4----|
|---2-2-2-2-2-2----|
    * * * * * *


Riff 2
|----------------------------------------------------|
|----------------------------------------------------|
|----------------------------------------------------|gtr
|---2--2-3-3-2-2/3\2-5-3-2--2-3-3-2-2/3\2-0/2\0------| 1
|---2--2-3-3-2-----------2--2-3-3-2-------------3----|
|---0--0-1-1-0-----------0--0-1-1-0------------------|


|---3-4-3-------6------3-3--3-4-3-------6----------------|
|---------5-4-5---4--5------------5-4-5---4-4/5\4-2------|
|---------------------------------------------------5----|gtr
|--------------------------------------------------------| 2
|--------------------------------------------------------|
|--------------------------------------------------------|


Riff 3
|----------------------------------------------------|
|----------------------------------------------------|
|----------------------------------------------------|both
|---2-2--2--2--2-3-2/3\2-2-2-2-2--2--2-2-3-2/3\2-----|gtrs
|---2-2--2--2------------2-2-2-2--2--2---------------|
|---0-0--0--0------------0-0-0-0--0--0---------------|
    * *  *  *            * * * *  *  *

|----------------------------------------------|
|----------------------------------------------|
|----------------------------------------------|both
|---2-2-2-2--2--2-2-3-2/3\2-2-2---6---6-5-3----|gtrs
|---2-2-2-2--2--2-----------2-2----------------|cont
|---0-0-0-0--0--0-----------0-0-0---0----------|
    * * * *  *  *           * *


Riff 1-B
 1.
|-------------------------------------------|
|-------------------------------------------|
|--------0----------------------------------|both
|---4--4---4-4-4-4--4-4-4-4-----------------|gtrs
|---4------4-4-4-4--4-4-4-4-----------------|
|---2------2-2-2-2--2-2-2-2--0-2-0-3-0-6-5--|
           * * * *  * * * *

Riff 3


Riff 4
|---------------------------------------------------------------|
|---------------------------------------------------------------|
|---4--4-4-4-4--5-5-5-5-5-5-------------------------------------|gtr
|---4--4-4-4-4--5-5-5-5-5-5-2-2-2-2-2-2----------------2/3\2----| 1
|---2--2-2-2-2--3-3-3-3-3-3-2-2-2-2-2-2--0/2\0--3/5\3-----------|
|---------------------------0-0-0-0-0-0-------------------------|
       * * * *  * * * * * * * * * * * *

|-------------------------------0-0-0-0-------------------------|
|-------------------------------4-4-4-4-------------------------|
|---4--4------------------------4-4-4-4-------------------------|gtr
|---4--4------------------------2-2-2-2-------------------------| 2
|---2--2--------------------------------------------------------|
|---------------------------------------------------------------|


Riff 5
|-------------------------------0-0-0-0-------------------------|
|-------------------------------4-4-4-4-------------------------|
|---4--4-4-4-4--5-5-5-5-5-5-----4-4-4-4-------------------------|gtr
|---4--4-4-4-4--5-5-5-5-5-5-2-2-2-2-2-2----------------2/3\2----| 1
|---2--2-2-2-2--3-3-3-3-3-3-2-2-2-2-2-2--0/2\0--3/5\3-----------|
|---------------------------0-0-0-0-0-0-------------------------|
       * * * *  * * * * * * * * * * * *

|---3-4-3-------6------3-3--3-4-3-------6----------------|
|---------5-4-5---4--5------------5-4-5---4-4/5\4-2------|
|---------------------------------------------------5----|gtr
|--------------------------------------------------------| 2
|--------------------------------------------------------|
|--------------------------------------------------------|


Добавлено: 17.04.2012
Другие материалы по этой песне:

Страница создана 01.04.2012
http://primanota.ru/bloodbath/blood-vortex-chords.htm
Привет, Гость.
Предлагаем пройти революционный курс по гитаре.
Подарок от PrimaNota.Ru, забирай!