PrimaNota.ru - самый крупный в мире бесплатный архив песенных текстов, аккордов, табулатур и нот


Bloodbath - Breeding Death - текст песни, таба, видео

Регистрация Запомнить меня
Войти через:  Facebook Google Twitter Vk Yandex Mail.ru

Bloodbath - Breeding Death - текст песни, таба, видео

Печатать
Просмотров: 228
Авторы музыки: Bloodbath
Авторы текста: Mikael Åkerfeldt, Jonas Renkse
Band: Bloodbath
Song: Breeding Death

Tabber: John Cukras
Email: riffreaper@yahoo.com

Tuning: B E A D F# B

Written in standard for easier reading.

Riff 1:
E------------------------------------------------
B------------------------------------------------
G------------------------------------------------
D-7^^------5/7-7/4-4/8--7^^-------9/12-12/7-7/9--
A----------3/5-5/2-2/6---------------------------
E-----0000------------------0000-----------------  x's 3, (3rd time end on first half)
pm    ....                  ....

Riff 2: Speed pick.
E-------------------------------------------------------------
B-------------------------------------------------------------
G-------------------------------------------------------------
D-7-9-11-10-7-9-10---------------7-9-11-10-7-9-10-------------
A--------------------------------------------------7-6-5-4-5-7
E-------------------5-4-3-2-3-5--------------------5-4-3-2-3-5  x's 2

Riff 3: 
E---------------
B---------------
G---------------
D----------7-4-6
A-4-7-6-5--5-2-4
E-2-5-4-3-------  x's 2

Riff 2 once

Riff 1 x's 4

Riff 4:
E----------------------------
B----------------------------
G-----6-7-6-5----------------
D---5---------7--------------
A-------------------------5-4
E-3------------- x's 3----3-2  x's 5 (last time don't end on chords)

Riff 3 x's 2

Riff 2 once

Riff 5: all x's 1, then first half x's 3                                 lead, throughout
E---------------------------------------------------------------------|--------------------
B---------------------------------------------------------------------|--------------------
G----------------------------8-9-8-7----7-9---------------------------|-9-10-9-10-9-10-9-10
D-2----------------2-------7----------9-------2----------------2------|--------------------
A-2--5--4--6-5-4-5-2--5--4--------------------2--5--4--6-5-4-5-2--5--4|--------------------
E-0--3--2--4-3-2-3-0--3--2--------------------0--3--2--4-3-2-3-0--3--2|--------------------
pm         . . . .                                     . . . .

Riff 6: Speed pick.
E----------------
B----------------
G----------------
D----------------
A----------------
E-2-1-7-6-3-5-2-4  x's 4

Riff 7: Speed pick.
E----------------------------------------------------------------
B----------------------------------------------------------------
G---7-6-5----6-7-------------------------------------------------
D-5--------5-----------------------------------------------2-----
A-----------------6-5-4-5----------------------------------2--5-4
E-----------------4-3-2-3   x's 4 (skip chords 3rd time)---0--3-2
pm                . . . .

Riff 1 x's 2

Riff 2 once

Riff 3 x's 2

Riff 2
Добавлено: 31.05.2012
Другие материалы по этой песне:

Страница создана 22.02.2012
http://primanota.ru/bloodbath/breeding-death-chords.htm
Привет, Гость.
Предлагаем пройти революционный курс по гитаре.
Подарок от PrimaNota.Ru, забирай!