PrimaNota.ru - самый крупный в мире бесплатный архив песенных текстов, аккордов, табулатур и нот


Bloodbath - Like Fire - аккорды и текст, таба, видео

Регистрация Запомнить меня
Войти через:  Facebook Google Twitter Vk Yandex Mail.ru

Bloodbath - Like Fire - аккорды и текст, таба, видео

Печатать
Просмотров: 250
Авторы: Bloodbath

Like Fire
Bloodbath
band: Bloodbath
Song: Like Fire

Tabber: John Cukras
email: riffreaper@yahoo.com

Tuning: B E A D F# B

Riff 1:
B--------------------------------
F--------------------------------
D--------------------------------
A------------------------3-4-5-4-
E-0000000-000000-0000000-1-2-3-2-
B-0000000-000000-0000000---------
pm....... ...... .......

Riff 2:
B----------------------------
F----------------------------
D----------------------------
A-3-6-5----------------------
E-1-4-3-5-0-5/6/5-0-3-6-5----
B-------3-0-3/4/3-0-1-4-3-00-
pm                        ..

Interlude thing: Riff 1 played underneath
B--------------------------------------------------------------------------------
F-----------------------------------------------------------------------18-20-22-
D----------------21-19-17-16~---------------------------------17-19-21-----------
A-12^--15^--21^-------------------------------------15-17-19---------------------
E-----------------------------------------15-17-19-------------------------------
B-------------------------------15-17-19-----------------------------------------

Riff 1

Riff 2

Riff 3: Trem pick all
B-------------------------
F-------------------------
D-------------------------
A-5--7-8-9-8-7------------
E-------------------------
B---------------3-2-0-2-1-

Riff 4:
B----------------------------
F----------------------------
D----------------------------
A-2--------------------------
E-2--6--5--3-2-1-------------
B-0--4--3--------3-2-1-1-2-3-

Riff 5: Trem pick all
B----------------------------------------------------------
F----------------------------------------------------------
D----------------------------------------------------------
A-7-9-10-9-6-5--6-5---------------7-9-10-9-7-5--9-10-11-12-
E--------------------6-7-6---------------------------------
B----------------------------------------------------------

Riff 1

Riff 2

Riff 5

Riff 5: Don't trem, just single notes (till the end)
Добавлено: 18.05.2012
Другие материалы по этой песне:

Страница создана 24.03.2012
http://primanota.ru/bloodbath/like-fire-chords.htm
Привет, Гость.
Предлагаем пройти революционный курс по гитаре.
Подарок от PrimaNota.Ru, забирай!