PrimaNota.ru - самый крупный в мире бесплатный архив песенных текстов, аккордов, табулатур и нот


Bloodbath - Eaten - текст песни, таба, видео

Регистрация Запомнить меня
Войти через:  Facebook Google Twitter Vk Yandex Mail.ru

Bloodbath - Eaten - текст песни, таба, видео

Печатать
Просмотров: 395
Авторы музыки: Dan Swanö
Авторы текста: Dan Swanö
Tuning  A E A D G B


Riff 1
|------------------------------------------------|
|------------------------------------------------|
|------------------------------------------------|
|------------------------------------------------|
|---0----6---5----3-3/4---0----6---5--3\1--1\0---|
|---0--0---0----0-3-3/4---0--0---0----3\1--1\0---|

|------------------------------------------------|
|------------------------------------------------|
|------------------------------------------------|
|------------------------------------------------|
|---0----6---5----3-3/4---0----6---5--3-1-0-1----|
|---0--0---0----0-3-3/4---0--0---0----3-1-0-1----|



Riff 2-A
|--------------------------------------|
|--------------------------------------|
|--------------------------------------|
|-------------------------------3-7----|
|---4-3-0-0-0-0-0-0-4-3-0-0-0-0-5-8----|
|---4-3-0-0-0-0-0-0-4-3-0-0-0-0--------|
        * * * * * *     * * * *


Riff 3
|---------------------------------------|
|---------------------------------------|
|---------------------------------------|
|-----------7/10-7/8-7------------------|
|---0-3-0-0-5/8--5/6-5-0-0-0-3-3-0-1----|
|---0-3-0-0------------0-0-0-3-3-0-1----|
        * *              * *



Riff 4-A over solo
|-----------------------------------|
|-----------------------------------|
|-----------------------------------|
|-----------------------------------| 
|---3/4-0-0-0-0-3/4-0-0-0-0-3-4-----|
|---3/4-0-0-0-0-3/4-0-0-0-0-3-4-----|
        * * * *     * * * *

|-----------------------------------|
|-----------------------------------|
|-----------------------------------|
|-----------------------------------| 
|---3/4-0-0-0-0-3/4-0-0-0-0-0-1-----|
|---3/4-0-0-0-0-3/4-0-0-0-0-0-1-----|
        * * * *     * * * *



Riff 4-B
|-----------------------------------|
|-----------------------------------|
|-----------------------------------|
|-----------------------------------|
|---3/4-0-0-0-0-3/4-0-0-0-0-3-4-----|
|---3/4-0-0-0-0-3/4-0-0-0-0-3-4-----|
        * * * *     * * * *

|-----------------------------------|
|-----------------------------------|
|-----------------------------------|
|-----------------------------------|
|---3/4-0-0-0-0-3/4-0-0-0-0-0-1-----|
|---3/4-0-0-0-0-3/4-0-0-0-0-0-1-----|
        * * * *     * * * *


Riff 1



Riff 2-B
|----------------------------------------|
|----------------------------------------|
|----------------------------------------|
|---------------3-7----------------------|
|---4-3-0-0-0-0-5-8---4-3-0-0-0-0-00-----|
|---4-3-0-0-0-0-------4-3-0-0-0-0-00-----|
        * * * *           * * * * **

|-----------------------------------------|
|-----------------------------------------|
|-----------------------------------------|
|---------------3-7-----------------------|
|---4-3-0-0-0-0-5-8---4-3-0-0-0-0-0-0-----|
|---4-3-0-0-0-0-------4-3-0-0-0-0-0-0-----|
        * * * *           * * * * * *



Riff 3



Riff 5 acoustic
|------16-----------16------16-----------16-----|
|---17----17-----17------17----17-----17--------|
|------------14-------------------14------------|
|-----------------------------------------------| 
|-----------------------------------------------|
|-----------------------------------------------|


|------18-----------18------18-----------18-----|
|---15----15-----15------15----15-----15--------|
|------------14-------------------14------------|
|-----------------------------------------------| 
|-----------------------------------------------|
|-----------------------------------------------|



Riff 6 above acoustic n solo
|-----------------------------------------------|
|-----------------------------------------------|
|-----------------------------------------------|
|-----------------------------------------------| 
|---0--6--0--6--0-0--0-0--6--0-0--0-0--0-0-6----|
|---0--6--0--6--0-0--0-0--6--0-0--0-0--0-0-6----|
                * *  * *     * *  * *  * *

|------------------------------------------------------|
|------------------------------------------------------|
|------------------------------------------------------|
|-------------------------------------fade-in----------| 
|---0--6--0--6--0-0--------------000000000000000000----|
|---0--6--0--6--0-0--------------000000000000000000----|
                * *              ******************


Riff 1


Riff 3

Добавлено: 09.04.2012
Другие материалы по этой песне:

Страница создана 14.03.2012
http://primanota.ru/bloodbath/eaten-chords.htm
Привет, Гость.
Предлагаем пройти революционный курс по гитаре.
Подарок от PrimaNota.Ru, забирай!