PrimaNota.ru - самый крупный в мире бесплатный архив песенных текстов, аккордов, табулатур и нот


Bloodbath - Brave New Hell - текст песни, таба, бас-таба, видео

Регистрация Запомнить меня
Войти через:  Facebook Google Twitter Vk Yandex Mail.ru

Bloodbath - Brave New Hell - текст песни, таба, бас-таба, видео

Печатать
Просмотров: 189
Авторы музыки: Dan Swanö
Авторы текста: Dan Swanö
Band: Bloodbath
Album: Nightmares made Flesh
Song: Brave New Hell

Copyright (c) Dan Swanö, 2004
Version 1, 25/10/2005

Transcribed By: Hypocrite
Contact: recalltohell@web.de

Suffixes for bend:
fb - full bend       hb - half bend
qb - quarter bend    t - tap bend
^ - Hold bend        r - release bend
~ - vibrato bend

Suffixes for harmonic:
ph - pinched harmonic      nh – natural harmonic
ah – artificial harmonic   hh – harp harmonic

Suffixes for mute:
. – palm mute            x – staccato mute
, - light palm mute      ; - heavy palm mute

Other:
/ - slide up to            \ - slide down to       
h - hammer on              p - pull off
‘ - sustained note         * - see comment
" - tremolo note           <> - Trill
L – left channel only      R – right channel only
= - 12 string guitar part

Tuning BEADF#B

Intro 2x
|-----------------------------------------------------------------------------|
|-----------------------------------------------------------------------------|
|-----------------------------------------------------------------------------|
|--------------------------------------------------------------9-10-9~---9----|
|-2--2-2-2-3--2-3-6--2--2-2-2-3--6-5-3--2--2-2-2-3--2-3-6----7--------10---8--|
|-0--0-0-0-1--0-1-4--0--0-0-0-1--4-3-1--0--0-0-0-1--0-1-4---------------------|
     . . .    .         . . .              . . .

Verse x2
|-------------------------------------------------------------------------|
|-------------------------------------------------------------------------|
|-------------------------------------------------------------------------|
|-------------------------------7-8-7-------------------------------------|
|----------7-8-7-5-----------10----------------7-8-7-5--------------------|
|-00000000----------66666666----------00000000---------66666666-3-5-6-5---|


Riff 1 x4
|------------------------------|
|------------------------------|
|------------------------------|
|----------3--3----------4-----|
|-2--2-2-2-1--1-4-3--2-2-2-4---|
|-0--0-0-0------2-1--0-0---2---|
     . . .      . .  . .

Refrain(part1) x2
|----------------------------------------------------------------------------|
|----------------------------------------------------------------------------|
|----------------------------------------------------------------------------|
|----------------------------------------------------------------------------|
|------------------2233222222222222222------------------------2-3-2--2-3-2---|
|-444444443333-0011-------------------------444444443333-0011-0-1-0--0-1-0---|
                                                              . .    . .

Refrain(part2) x2
|---------------------------------------------------|
|---------------------------------------------------|
|---------------------------------------------------|
|-------------4-5-4---------------------------------|
|-6----5--2-3-2-3-2-----6----5--2-3-2-3-2---2-3-2---|
|-4----3--0-1-2-3-2-----4----3--0-1-0-1-0---0-1-0---|
          . .                   . . . .     . .

Intro 2x
|-----------------------------------------------------------------------------|
|-----------------------------------------------------------------------------|
|-----------------------------------------------------------------------------|
|--------------------------------------------------------------9-10-9~---9----|
|-2--2-2-2-3--2-3-6--2--2-2-2-3--6-5-3--2--2-2-2-3--2-3-6----7--------10---8--|
|-0--0-0-0-1--0-1-4--0--0-0-0-1--4-3-1--0--0-0-0-1--0-1-4---------------------|
     . . .    .         . . .              . . .

Verse x2
|-------------------------------------------------------------------------|
|-------------------------------------------------------------------------|
|-------------------------------------------------------------------------|
|-------------------------------7-8-7-------------------------------------|
|----------7-8-7-5-----------10----------------7-8-7-5--------------------|
|-00000000----------66666666----------00000000---------66666666-3-5-6-5---|


Riff 1 x4
|------------------------------|
|------------------------------|
|------------------------------|
|----------3--3----------4-----|
|-2--2-2-2-1--1-4-3--2-2-2-4---|
|-0--0-0-0------2-1--0-0---2---|
     . . .      . .  . .

Refrain(part1) x2
|----------------------------------------------------------------------------|
|----------------------------------------------------------------------------|
|----------------------------------------------------------------------------|
|----------------------------------------------------------------------------|
|------------------2233222222222222222------------------------2-3-2--2-3-2---|
|-444444443333-0011-------------------------444444443333-0011-0-1-0--0-1-0---|
                                                              . .    . .

Refrain(part2) x2
|---------------------------------------------------|
|---------------------------------------------------|
|---------------------------------------------------|
|-------------4-5-4---------------------------------|
|-6----5--2-3-2-3-2-----6----5--2-3-2-3-2---2-3-2---|
|-4----3--0-1-2-3-2-----4----3--0-1-0-1-0---0-1-0---|
          . .                   . . . .     . .

Solo(part 1)
|----------------------------------------------------------------------
|----------------------------------------------------------------------
|----------------------------------------------------------------------           Guitar One
|----------------------------------------------------------------------
|-0h7h10-0h7h10-0h7h10-0h6h90h6h9-0h7h10-0h7h10-0h7h10-0h11h130h11h13--
|----------------------------------------------------------------------
  .                               .
|----------------------------------------------------------------------
|----------------------------------------------------------------------
|----------------------------------------------------------------------          Guitar Two
|-----------------------------8----------------------------------------
|-2---------------------------6---2---------------------------8--------
|-0-------------------------------0---------------------------6--------

----------------------------------------------------------------------|
----------------------------------------------------------------------|
----------------------------------------------------------------------|            Guitar One
----------------------------------------------------------------------|
-0h7h10-0h7h10-0h7h10-0h6h90h6h9--0h7h10-0h7h10-0h7h10-0h11h130h11h13-|
----------------------------------------------------------------------|
 .                                .
----------------------------------------------------------------------|
----------------------------------------------------------------------|
----------------------------------------------------------------------|           Guitar Two
----------------------------------------------------------------------|
-2--------------------------------2---------------------------5-7-8-7-|
-0--------------------------------0---------------------------3-5-6-5-|


Solo(part 2) x2
|----------------------------------------------------------------------
|----------------------------------------------------------------------
|----------------------------------------------------------------------              Guitar One
|----------------------------------------------------------------------
|-0h7h10-0h7h10-0h7h10-0h6h90h6h9-0h7h10-0h7h10-0h7h10-0h11h130h11h13--
|----------------------------------------------------------------------
| .      .      .      .          .      .      .       .
|----------------------------------------------------------------------
|----------------------------------------------------------------------
|----------------------------------------------------------------------              Guitar Two
|-----------------------------8--------------------------------3-------
|-2------2------2------2------6---2------2------2-------2------1-------
|-0------0------0------0------6---0------0------0-------0------1-------

----------------------------------------------------------------------|
----------------------------------------------------------------------|
----------------------------------------------------------------------|             Guitar One
----------------------------------------------------------------------|
-0h7h10-0h7h10-0h7h10-0h6h90h6h9--0h7h10-0h7h10-0h7h10-0h11h130h11h13-|
----------------------------------------------------------------------|
 .                                .
----------------------------------------------------------------------|
----------------------------------------------------------------------|
----------------------------------------------------------------------|             Guitar Two
------------------------------8---------------------------------------|
--2-----2------2------2-------6---2------2------2------2------5-7-8-7-|
--0-----0------0------0-------6---0------0------0------0------3-5-6-5-|


Riff 2 x2
|---------------------------------------------------|
|---------------------------------------------------|
|---------------------------------------------------|
|---------8----------3----------8-------------------|
|-2-2-2-2-6--2-2-2-2-1--2-2-2-2-6--2-2-2-2--5-7-8-7-|
|-0-0-0-0-6--0-0-0-0-1--0-0-0-0----0-0-0-0--3-5-6-5-|
  . . . .    . . . .    .          .

Riff 3 x2
|--------------------------------------------|
|--------------------------------------------|
|-----9-----9------------12----------15------|       Guitar One (clean)
|---8-----8---8-------11----11----14----14---|
|-7-----7-------7--10----------13------------|
|--------------------------------------------|
             
|--------------------------------------------|
|--------------------------------------------|
|--------------------------------------------|            Guitar Two
|--------------------------------------------|
|-2-2--------------X///////////////////////--|
|-0-0--------------X///////////////////////--|
  . .

Riff 4 x8
|--------------------------------------------|
|--------------------------------------------|
|-----9-----9------------12----------15------|        Guitar One (clean)
|---8-----8---8-------11----11----14----14---|
|-7-----7-------7--10----------13------------|
|--------------------------------------------|
  . .   .
|--------------------------------------------|
|--------------------------------------------|
|--------------------------------------------|             Guitar Two
|------------------------5-----------8-------|
|-2-2---2-2-----------4-----4-----7-----7----|
|-0-0---0-0--------3-----------6-------------|

[Solo Missing]

Intro 2x
|-----------------------------------------------------------------------------|
|-----------------------------------------------------------------------------|
|-----------------------------------------------------------------------------|
|--------------------------------------------------------------9-10-9~---9----|
|-2--2-2-2-3--2-3-6--2--2-2-2-3--6-5-3--2--2-2-2-3--2-3-6----7--------10---8--|
|-0--0-0-0-1--0-1-4--0--0-0-0-1--4-3-1--0--0-0-0-1--0-1-4---------------------|
     . . .    .         . . .              . . .

Refrain(part1) x2
|----------------------------------------------------------------------------|
|----------------------------------------------------------------------------|
|----------------------------------------------------------------------------|
|----------------------------------------------------------------------------|
|------------------2233222222222222222------------------------2-3-2--2-3-2---|
|-444444443333-0011-------------------------444444443333-0011-0-1-0--0-1-0---|
                                                              . .    . .

Refrain(part2) x2
|---------------------------------------------------|
|---------------------------------------------------|
|---------------------------------------------------|
|-------------4-5-4---------------------------------|
|-6----5--2-3-2-3-2-----6----5--2-3-2-3-2---2-3-2---|
|-4----3--0-1-2-3-2-----4----3--0-1-0-1-0---0-1-0---|
          . .                   . . . .     . .
and fade out
Добавлено: 11.06.2012
Другие материалы по этой песне:

Страница создана 29.02.2012
http://primanota.ru/bloodbath/brave-new-hell-chords.htm
Привет, Гость.
Предлагаем пройти революционный курс по гитаре.
Подарок от PrimaNota.Ru, забирай!