PrimaNota.ru - самый крупный в мире бесплатный архив песенных текстов, аккордов, табулатур и нот


Black Label Society - Overlord - таба, бас-таба, видео

Регистрация Запомнить меня
Войти через:  Facebook Google Twitter Vk Yandex Mail.ru

Black Label Society - Overlord - таба, бас-таба, видео

Печатать
Просмотров: 534
Уроки эстрадного вокала в Санкт-Петербурге
Авторы музыки: Zakk Wylde
Авторы текста: Zakk Wylde
This song is in 2 flats (Drop D Standard)


[Intro] (With Wah)

|---------------------------------|
|---------------------------------| x4
|-------------3--5br--33------3---|
|--555--3--5--------------33------|
|---------------------------------|
|---------------------------------|

on forth time instead of the individual notes power chords are played
|----------------|
|----------------|
|----------------|
|-7-7---2-2--7---|
|-7-7---2-2--7---|
|-5-5---0-0--5---|

[Verse] (power chord progression)

|-------------------------------------| 
|--------------2---4br~--2-2-------2--|
|--------------2---4br~--2-2-------2--|
|-4-4-4--2--4--2---4br~--2-2--2-2--2--|
|-4-4-4--2--4-----------------2-2-----|
|-2-2-2--0--2-----------------0-0-----|



Chorus (Kings of this world....)

|----------------------------------------------------| x2
|----------------------------------------------------|
|-11-11----------9-9---------7--7~--/(6)-6~--/11--11-|
|-11-11--6-7-9---9-9--6h7p6--7----7~/(6)---6~/11--11-|
|-9--9-----------7-7---------5--------------------9--|
|----------------------------------------------------|

there are 2 licks at the end of the chorus 
Lick 1 (1st time played)
|--------------------|
|--------------------|
|--------------------|
|-9brp7--9*p7*-------|
|------------9*p7*---|
|--------------------|

Lick 2 (2nd time played)
|----------------|
|----------------|
|----------------|
|------------7---|
|-----7--7h9-----|
|-7h9------------|

(Verse) (no change)


Bridge
Riff 1

|---------------------------------------------------------------------|
|---------------------------------------------------------------------|
|---------------------------------------------------------------------|
|---------------------2--------------------------4p2--4p2--4p2--4p2---|
|-----------------2-4---4p2----2--------------------4----4----4----4--|(x6)
|-22xx22xx--2-4-5------------5----5-4--22xx22xx-----------------------|


Played Over Solo (same as bridge just played up a whole step)
Riff 2

|------------------------------------------------------------------|
|------------------------------------------------------------------|
|------------------------------------------------------------------|
|---------------------4-----------------------6p4--6p4--6p4--6p4---|
|-----------------4-6---6p4---4------------------6----6----6----6--|rpt(x2)
|-44xx44xx--4-6-7-----------7---7-6-44xx44xx-----------------------|

(Riff 1) (x2)

~Solo End~

Chord progression

|---------------------------|
|---------------------------|
|---(x5)----------(x5)------|
|-11-----16--14--11----9----|Rpt (x4)
|-11-----14--12--11----7----|
|-9--------------9----------|

(Verse)
(Chorus)
(Verse) Last 2
|-----------------|
|-------------4~--|
|-------------4~--|
|-4-4--0--4---4~--|
|-4-4--0--4-------|
|-2-2--0--2-------|

I AM YOUR OVERLORD!
Добавлено: 21.07.2012
Другие материалы по этой песне:

Страница создана 23.04.2012
http://primanota.ru/black-label-society/overlord-chords.htm
Привет, Гость.
Предлагаем пройти революционный курс по гитаре.
Подарок от PrimaNota.Ru, забирай!