PrimaNota.ru - самый крупный в мире бесплатный архив песенных текстов, аккордов, табулатур и нот


Black Label Society - Suffering Overdue - текст песни, бас-таба, видео

Регистрация Запомнить меня
Войти через:  Facebook Google Twitter Vk Yandex Mail.ru

Black Label Society - Suffering Overdue - текст песни, бас-таба, видео

Печатать
Просмотров: 180
-------------------------------------------------------------------------------
			     Suffering Overdue - Black Label Society
-------------------------------------------------------------------------------

Tabbed By : Chris Streidt
e-mail: chris.streidt@gmx.de

Tuning: E-B
        A-Ab
        D-Db
        G-Gb

The first part is very strange to play...but i haven't found another way, yet.

-Intro/Chorus-
Gb|---------------------------------------------------------------------------|
Db|---------------------------------------------------------------------------|
Ab|---------------------------------------------------------------------------|
B |-0-/12-10---6-5-6--5-3-5-3\------------------------------------------------|

Gb|---------------------------------------------------------------------------|
Db|---------------------------------------------------------------------------|
Ab|---------------------------------------------------------------------------|
B |-0-/12-10---6-5-6--5-3-5-3~------------------------------------------------|


Gb|---------------------------------------------------------------------------|
Db|---------------------------------------------------------------------------|
Ab|---------------------------------------------------------------------------|
B |-0-/12-10---6-5-6--5-3-5-3\------------------------------------------------|

Gb|---------------------------------------------------------------------------|
Db|---------------------------------------------------------------------------|
Ab|---------------------------------------------------------------------------|
B |-0-/12-10---6-5-6---5------------------------------------------------------|

-Verse-
Gb|---------------------------------------------------------------------------|
Db|------------------0-2------------------------------------------------------|
Ab|-0h2-2-2-2-22-2-2----------------------------------------------------------|
B |---------------------------------------------------------------------------|

Gb|---------------------------------------------------------------------------|
Db|---------------------------------------------------------------------------|
Ab|-0h2-2-2-2-22-2-2-3~-------------------------------------------------------|
B |---------------------------------------------------------------------------|

-Brigde-
Gb|---------------------------------------------------------------------------|
Db|---------------------------------------------------------------------------|
Ab|-0-0h2---2-4-5--4----------------------------------------------------------|
B |---------------------------------------------------------------------------|

"So many years...."
Gb|---------------------------------------------------------------------------|
Db|----------------2------------2---------------------------------------------|
Ab|-0-0h2---2-4-5----5-4--2-4-5---5-4-----------------------------------------|
B |---------------------------------------------------------------------------|

-Solo Part I-
Nor sure about that fast part....
Gb|---------------------------------------------------------------------------|
Db|-----------------------------2-----------------------2-----------2---------|
Ab|-2---2-2-2-2-2---2-2-2-2-4-5---5-4-0-2---2-2-2-2-4-5---5-4-0-4-5---5-4-0-2-|
B |---------------------------------------------------------------------------|

-Solo Part II-
Gb|---------------------------------------------------------------------------|
Db|------------------0-2------------------------------------------------------|
Ab|-0h2-2-2-2-22-2-2----------------------------------------------------------|
B |---------------------------------------------------------------------------|

Gb|---------------------------------------------------------------------------|
Db|---------------------------------------------------------------------------|
Ab|-0h2-2-2-2-22-2-2-3~-------------------------------------------------------|
B |---------------------------------------------------------------------------|


| /  slide up
| \  slide down
| h  hammer-on
| p  pull-off
| ~  vibrato
| +  harmonic
| x  Mute note
===============================================================================

Hope i could help you learning the song...enjoy!

Chris
Добавлено: 13.03.2012
Другие материалы по этой песне:

Страница создана 13.03.2012
http://primanota.ru/black-label-society/suffering-overdue-chords.htm
Привет, Гость.
Предлагаем пройти революционный курс по гитаре.
Подарок от PrimaNota.Ru, забирай!