PrimaNota.ru - самый крупный в мире бесплатный архив песенных текстов, аккордов, табулатур и нот


Black Label Society - Southern Dissolution - таба, видео

Регистрация Запомнить меня
Войти через:  Facebook Google Twitter Vk Yandex Mail.ru

Black Label Society - Southern Dissolution - таба, видео

Печатать
Просмотров: 201
Авторы музыки: Zakk Wylde
Авторы текста: Zakk Wylde
Artist:	Black Label Society
Album:	Order of the Black
Song:	Southern Dissolution

Tuning: Drop D

b = bend
v = vibrato
/ = slide up
\ = slide down
pm = palm mute
ph = pinch harmonic

Main riff (with pinch):
e--------------------------------------------------------------------|
b--------------------------------------------------------------------|
g--------------------------------------------------------------------|
D--0-5\3-0-3--3/5--0---0--00000-------0-5\3-0-3--3/5--0--------------|
A--0-5\3-0-3--3/5--0---0--00000-------0-5\3-0-3--3/5--0--------------|
D--0-5\3-0-3--3/5--0---0--00000-------0-5\3-0-3--3/5--0---3b4-3v-----|
		   pm	   pm			      pm      ph

Main riff (with bend):
e--------------------------------------------------------------------|
b--------------------------------------------------------------------|
g--------------------------------------------------------------------|
D--0-5\3-0-3--3/5--0---0--00000-------0-5\3-0-3--3/5--0--------------|
A--0-5\3-0-3--3/5--0---0--00000-------0-5\3-0-3--3/5--0---3b5--------|
D--0-5\3-0-3--3/5--0---0--00000-------0-5\3-0-3--3/5--0--------------|
		   pm	   pm			      pm

Bridge:
e--------------------------------------------------------------------|
b--------------------------------------------------------------------|
g--------------------------------------------------------------------|
D--8888-7777-55554555-5-7-8888-7777-10101010-9999----7-8888-10v-5----|
A--8888-7777-55554555-5-7-8888-7777-10101010-9999----7-8888-10v-5----|
D--8888-7777-55554555-5-7-8888-7777-10101010-9999-10-7-8888-10v-5----|
						  ph

2:31-3:13:
e-------------------------------------------------------------------------|
b-------------------------------------------------------------------------|
g-------------------------------------------------------------------------|
D-----------------------------------------------------------------5-3-----|    x6
A---------------------0-3-------------------------------------0-3-5-3-----|
D--0-0-3-0-5b6-5--0-5-----6-5-0--6-5-3-----0-0-3-0-5b6-5--0-5-----5-3-----|
          pm--------------->pm              pm----------------------------|pm

3:14-3:28:
e--------------------------------------------------------------------|
b--------------------------------------------------------------------|
g--------------------------------------------------------------------|
D--000---000---000----000----000-12-000-10-000-6-000-5---------------|	x2
A--000-7-000-5-000-12-000-10-000-12-000-10-000-6-000-5---------------|
D--000-5-000-3-000-10-000-8--000-12-000-10-000-6-000-5---------------|
   pm    pm    pm     pm     pm     pm	   pm	 pm

3:29-3:35:
e-------------|
b-------------|
g-------------|
D--00000000000
A--00000000000
D--00000000000
   pm----->etc


4:42-4:56 (Outro)
e----------------------------------------------------|
b----------------------------------------------------|
g----------------------------------------------------|
D--00000-0---00-0---0-0----00000-0---00-0---00-5-----|   x2
A--00000-0---00-0---0-0----00000-0---00-0---00-5-----|
D--00000-3p0-00-3p0-0-0----00000-3p0-00-3p0-00-5-----|
   pm------------------------------------------------|pm


Sequence:

0:01-0:25 Main riff (with pinch)	x3
0:26-0:50 Main riff (with bend) 	x4	("The quicksand is rising...")
0:51-1:05 Bridge				("Right on time, right on time...")
1:06-1:17 Main riff (with pinch) Chorus	x2	("Southern dissolution come and take it away...")
1:18-1:43 Main riff (with bend)		x3	("Sinking, come save me...")
1:44-1:59 Bridge				("Right on time, right on time...")
2:00-2:24 Main riff (with pinch) Chorus x3	("Southern dissolution come and take it away...")
2:31-3:13				x6
3:14-3:28				x2
3:29-3:35 (palm-muting -alternate pick)
3:36-4:00 Main riff (with pinch) Solo	x4
4:01-4:16 Bridge 			x2	("Right on time, right on time...")
4:17-4:41 Main riff (with pinch) Chorus x4	("Southern dissolution come and take it away...")
4:42-4:56 Outro

Tabbed by Mad-Season, 14th November 2010
Email: h22a.vtec@gmail.com
Добавлено: 11.04.2012
Другие материалы по этой песне:

Страница создана 31.03.2012
http://primanota.ru/black-label-society/southern-dissolution-chords.htm
Привет, Гость.
Предлагаем пройти революционный курс по гитаре.
Подарок от PrimaNota.Ru, забирай!