PrimaNota.ru - самый крупный в мире бесплатный архив песенных текстов, аккордов, табулатур и нот


Black Keys - Work Me - таба, видео

Регистрация Запомнить меня
Войти через:  Facebook Google Twitter Vk Yandex Mail.ru

Black Keys - Work Me - таба, видео

Печатать
Просмотров: 177
                                       ~~~~~~~~~~~~~~~~~~~~~~~~~~~~~~~~~~~~~~~~
                                                       Work Me
                                                  by: The Black Keys
                                       Chulahoma: The Songs of Junior Kimbrough
                                       ~~~~~~~~~~~~~~~~~~~~~~~~~~~~~~~~~~~~~~~~


Okay, so I orginally tabbed this in standard (In which it's definitely playable, 
just need to work out the basslines), 
but a few spots lead me to believe that maybe I didn't have it tabbed right. More 
specifically, the intro and outro were
kind of off. So I tried it down one step (a tuning Dan uses in several other songs). 

Please rate my tab. I know the boxes are a little choppy/uneven. I had to split 
them up to make them smaller so they 
would accept the tab. I hope its not hard too hard read.

Don't hesitate to comment with corrections/ideas if you need help/have help to 
give. I'm on here pretty much every other day. 



Tabbed by: Connor O.
Tuning: Down One Step (DGCFAD)

Key:
where # represents a number

#h# - hammer
#p# - pull
/ \ - slides, up and down respectively.
#b# - bend from normal note up to achieve bended note.
#r# - release bend from bended note to normal note.
~   - he holds the note, then pulls of after short delay. 



Intro:


  0:00                                      

d|-----5555/3------------------0---------------|
A|-----5555/3--5-3/5-----1-3/5---5\3---1-------|
F|---------------------2-------------0---0h2---|
C|---------------------------------------------|
G|--0------------------------------------------|
D|---------------------------------------------|



1st Verse:


  0:08

d|---------------------------------------------------------|
A|-1h3p1---1h3---------1h3p1-----------1h3-1h3-1h3p1-------|
F|-------2---------0h2---------------------------------2---|
C|---------------------------------------------------------|
G|-0---0---0---0---0---0---0---0---0---0---0---0---0---0---|
D|---------------------------------------------------------|




d|--------------------------------------------------------------------------------|
A|-----1h3p1-------1h3p1---1h3---------1h3p1-----------1h3-1h3-1h3p1--------------|
F|-0h2-------------------2---------0h2---------------------------------2----------|
C|--------------------------------------------------------------------------------|
G|-0---0---0---0---0---0---0---0---0---0---0---0---0---0---0---0---0---0----------|
D|--------------------------------------------------------------------------------|


  0:22

d|-3-----3-----3------------------------------------------------------------------|
A|---------------------3---------------1-----------1------------------1-----------|
F|-----------------------------0h2-----------2-----------2------------------2-----|
C|-0---0---0---0---0---0---0---0---0---0---0---0---0---0------0---0---0---0---0---|
G|---------------------------------------------------------3----------------------|
D|--------------------------------------------------------------------------------|


  0:31

d|-3-----3-----3------------------------------|
A|---------------------3-/-5-------3---1------|
F|---------------------------------------2-0--|
C|-0---0---0---0---0---0---0---0---0---0------|
G|-----------------------------------------0--|
D|--------------------------------------------|




d|--------------------------------------------------------------------------------|
A|---------1h3p1-------1h3p1---1h3---------1h3p1-----------1h3-1h3-1h3p1----------|
F|-----0h2-------------------2---------0h2---------------------------------2------|
C|--------------------------------------------------------------------------------|
G|-0---0---0---0---0---0---0---0---0---0---0---0---0---0---0---0---0---0---0------|
D|--------------------------------------------------------------------------------|

  
  0:44                                                                         
  Baby you work me                                                       
d|-3-----3-----3------------------------------------------------------------------|
A|---------------------3---------------1-----------1------------------1-----------|
F|-----------------------------0h2-----------2-----------2------------------2-----|
C|-0---0---0---0---0---0---0---0---0---0---0---0---0---0------0---0---0---0---0---|
G|---------------------------------------------------------3----------------------|
D|--------------------------------------------------------------------------------|


  0:52
  Till I want no more
d|-3-----3-----3------------------------------|
A|---------------------3-/-5-------3-\-1------|
F|---------------------------------------2-0--|
C|-0---0---0---0---0---0---0---0---0---0------|
G|-----------------------------------------0--|
D|--------------------------------------------|




d|-------------------------------------------------------------------------------|
A|---------1h3p1-------1h3p1---1h3---------1h3p1-----------1h3-1h3-1h3p1---------|
F|-----0h2-------------------2---------0h2---------------------------------2-----|
C|-------------------------------------------------------------------------------|
G|-0---0---0---0---0---0---0---0---0---0---0---0---0---0---0---0---0---0---0-----|
D|-------------------------------------------------------------------------------|


  1:03
  Baby you work me                                                       
d|-3-----3-----3/5---------------------------------------------------------------|
A|---------------------3---------------1-----------1------------------1----------|
F|-----------------------------0h2-----------2-----------2------------------2----|
C|-0---0---0---0---0---0---0---0---0---0---0---0---0---0------0---0---0---0---0--|
G|---------------------------------------------------------3---------------------|
D|-------------------------------------------------------------------------------|

 
  1:12
  Till I want no more
d|-3-----3-----3------------------------------|
A|---------------------3-/-5-------3-\-1------|
F|---------------------------------------2-0--|
C|-0---0---0---0---0---0---0---0---0---0------|
G|-----------------------------------------0--|
D|--------------------------------------------|


  1:25
  Want you to work me baby
d|-------3-----3-----------------------------------------------------------------|
A|-3/5-------5-----5---3\1-------------1-----------1-----------------------------|
F|---------------------------2---------------2-----------2-----------------------|
C|-0---0---0---0---0---0---0---0---0---0---0---0---0---0------0------------------|
G|---------------------------------------------------------3---------------------|
D|-------------------------------------------------------------------------------|


  1:31
  Lord how you make me feel
d|-3/5---3------------------------|
A|-----------5-3---1---3--p0------|
F|---------------------------2----|
C|-0---0---0---0---0---0---0------|
G|-----------------------------0--|
D|--------------------------------|




d|-------------------------------------------------------------------------------|
A|---------1h3p1-------1h3p1---1h3---------1h3p1-----------1h3-1h3-1h3p1---------|
F|-----0h2-------------------2---------0h2---------------------------------2-----|
C|-------------------------------------------------------------------------------|
G|-0---0---0---0---0---0---0---0---0---0---0---0---0---0---0---0---0---0---0-----|
D|-------------------------------------------------------------------------------|


  1:40
   
d|-------3-----3-----------------------------------------------------------------|
A|-3/5-------5-----5---3\1-------------1-----------1-----------------------------|
F|---------------------------2---------------2-----------2-----------------------|
C|-0---0---0---0---0---0---0---0---0---0---0---0---0---0------0------------------| 
G|---------------------------------------------------------3---------------------|
D|-------------------------------------------------------------------------------|
Play riff through solo 1


Solo 1:


  1:43                                           

d|-5---3---------3---------3--------------------------0--------------------------|
A|----5--5\3---5---3\1---5---3\1---3p1-3----------1h3---3p1----1h3---1h3-------1-|
F|----------------------------------------2---0h2-----------2------2-------0h2---|
C|-------------------------------------------------------------------------------|
G|-------------------------------------------------------------------------------|
D|-------------------------------------------------------------------------------|


  2:06                                    

d|-0-2-0--3-3/5--5--8-5-8-5----15--12\10-8-10-10/12-----8-----------5-8-5--------|
A|-----------------------------13--------------------10---10\8----8-------8------|
F|-----------------------------14------------------------------------------------|
C|-------------------------------------------------------------------------------|
G|-------------------------------------------------------------------------------|
D|-------------------------------------------------------------------------------|


  2:15                                                                

d|---3-5-3------3-5-3----------------------------------------------------0h2-----|
A|-5-------5--3-------1---1-3-1-3-1---3-1--3-1--3-1--3/5-1-------------------1h3-|
F|---------------------------------------------------------2-----0-0h2-----------|
C|-------------------------------------------------------------2-----------------|
G|-------------------------------------------------------------------------------|
D|-------------------------------------------------------------------------------|



2nd Verse:


  2:30                                             
  Won't you do me?                                  
d|-3-----3-----3/5---------------------------------------------------------------|
A|---------------------3---------------1-----------1------------------1----------|
F|-----------------------------0h2-----------2-----------2------------------2----|
C|-0---0---0---0---0---0---0---0---0---0---0---0---0---0------0---0---0---0---0--|
G|---------------------------------------------------------3---------------------|
D|-------------------------------------------------------------------------------|


  2:37
  Baby I will do you too                   
d|-3-------3-------------------------------|
A|-----------------5-------5----3-/-1------|
F|------------------------------------2-0--| 
C|-0---0---0---0---0---0---0----0---0------|
G|--------------------------------------0--|
D|-----------------------------------------|




d|--------------------------------------------------------------------------------|
A|---------1h3p1-------1h3p1---1h3---------1h3p1-----------1h3-1h3-1h3p1----------|
F|-----0h2-------------------2---------0h2---------------------------------2------|  X2
C|--------------------------------------------------------------------------------|
G|-0---0---0---0---0---0---0---0---0---0---0---0---0---0---0---0---0---0---0------|
D|--------------------------------------------------------------------------------|


  2:57
  If you do me?                                  
d|-3-----3-----3/5----------------------------------------------------------------|
A|---------------------3---------------1-----------1------------------1-----------|
F|-----------------------------0h2-----------2-----------2------------------2-----|
C|-0---0---0---0---0---0---0---0---0---0---0---0---0---0------0---0---0---0---0---|
G|---------------------------------------------------------3----------------------|
D|--------------------------------------------------------------------------------|


  3:04
  Baby I will do you too
d|-3-------3-------------------------------|
A|-----------------5-------5----3-/-1------|
F|------------------------------------2-0--| 
C|-0---0---0---0---0---0---0----0---0------|
G|--------------------------------------0--|
D|-----------------------------------------|




d|---------------------------------------------------------------------------|
A|---------1h3p1-------1h3p1---1h3---------1h3p1-----------1h3-1h3-1h3p1-----|
F|-----0h2-------------------2---------0h2---------------------------------2-|
C|---------------------------------------------------------------------------|
G|-0---0---0---0---0---0---0---0---0---0---0---0---0---0---0---0---0---0---0-|
D|---------------------------------------------------------------------------|


  3:15
  Want you to work me baby
d|-------3-----3-------------------------------------------------------------|
A|-3/5-------5-----5---3\1-------------1-----------1-------------------------|
F|---------------------------2---------------2-----------2-------------------|
C|-0---0---0---0---0---0---0---0---0---0---0---0---0---0------0--------------|
G|---------------------------------------------------------3-----------------|
D|---------------------------------------------------------------------------|


  3:21
  Lord how you make me feel
d|-3/5---3------------------------|
A|-----------5-3---1---3--p0------|
F|---------------------------2----|
C|-0---0---0---0---0---0---0------|
G|-----------------------------0--|
D|--------------------------------|




d|---------------------------------------------------------------------------|
A|---------1h3p1-------1h3p1---1h3---------1h3p1-----------1h3-1h3-1h3p1-----|
F|-----0h2-------------------2---------0h2---------------------------------2-|
C|---------------------------------------------------------------------------|
G|-0---0---0---0---0---0---0---0---0---0---0---0---0---0---0---0---0---0---0-|
D|---------------------------------------------------------------------------|


  3:30

d|---------------------------------------------------------------------------|
A|-----1h3p1-------1h3p1---1h3---------1h3p1-----------1h3-3/5-3---1---------|
F|-0h2-------------------2---------0h2---------------------------------------|
C|---------------------------------------------------------------------------|
G|-0---0---0---0---0---0---0---0---0---0---0---0---0---0---0---0---0---------|
D|---------------------------------------------------------------------------|



Solo 2:


  3:36                                         
  (~10 C notes, fade in soft) (exactly 6 F notes)
d|-----------------3-3-3-3-3-3/5---0------5-8-10-10---8-5-8-10---8-10-8-5----|
A|-3-3-3-3-3-3/5-------------------------------------------------------------|
F|---------------------------------------------------------------------------|
C|---------------------------------------------------------------------------|
G|---------------------------------------------------------------------------|
D|---------------------------------------------------------------------------|


  3:44                                                              
                                                        
d|-3----------------0h2------------------------------------6-5-4-------------|
A|---5-3\1-3~/5-1-------1-1h3p1----------------------------5-4-3--1h3p1------|
F|------------------------------2-2-------0-0h2-------------------------0h2--|
C|------------------------------------2-2------------------------------------| 
G|---------------------------------------------------------------------------|
D|---------------------------------------------------------------------------|
Добавлено: 02.07.2013
Другие материалы по этой песне:
  • Аккорды и текст

Страница создана 02.07.2013
http://primanota.ru/black-keys/work-me-chords.htm
Привет, Гость.
Предлагаем пройти революционный курс по гитаре.
Подарок от PrimaNota.Ru, забирай!