PrimaNota.ru - самый крупный в мире бесплатный архив песенных текстов, аккордов, табулатур и нот


Black Keys - Desperate Man - аккорды и текст, таба, бас-таба, видео

Регистрация Запомнить меня
Войти через:  Facebook Google Twitter Vk Yandex Mail.ru

Black Keys - Desperate Man - аккорды и текст, таба, бас-таба, видео

Печатать
Просмотров: 259
Desperate Man
Black Keys
----------------------------------------------------------------------------
                             Desperate Man - The Black Keys
----------------------------------------------------------------------------
 
Tabbed by:MCiccone

Email: Mcdaddy0945@aol.com

Tuning: Standard

 So i was just sitting at my computer, messed around, and got this for you.  Maybe I 
finish the song someday, I have no idea.

Intro:

e|-----3--------------3---------------------------|
B|-----3--------------3---------------------------|
G|-----4--------------4---------------------------|
D|-----5------3-------5----3b5r3p1------5^~~~-----|
A|-----5--3/5----x----5-------------3-------------|
E|---3--------------3-----------------------------|
                         (Play Fast!)
Verse:

(This part is simple)

e|-----3--------------|  Play this untill you get to:-- 
B|.----3-------------.|                             ---- 
G|-----4--------------|                           ------ 
D|.----5-------3-----.|                         -------- 
A|-----5--3h5----x----|                       ---------- 
E|---3----------------|                     ------------ 
                                           -
e|----3--------------------------|      -- 
B|----3--------------------------|    ---- 
G|----4--------------------------|  ------ 
D|----5----3b5r3p1------5^~~~----| 
Добавлено: 14.01.2014
Другие материалы по этой песне:
  • Аккорды и текст

Страница создана 17.04.2012
http://primanota.ru/black-keys/desperate-man-chords.htm
Привет, Гость.
Предлагаем пройти революционный курс по гитаре.
Подарок от PrimaNota.Ru, забирай!