PrimaNota.ru - самый крупный в мире бесплатный архив песенных текстов, аккордов, табулатур и нот


Black Keys - Ohio - бас-таба, видео

Регистрация Запомнить меня
Войти через:  Facebook Google Twitter Vk Yandex Mail.ru

Black Keys - Ohio - бас-таба, видео

Печатать
Просмотров: 345
-------------------------------------------------------------------------------
			     OHIO - Black Keys
-------------------------------------------------------------------------------

Tabbed By : elmatador13
e-mail: 14rays@gmail.com
Tuning: Standard

A great new single from the Black Keys released on January 4th, 2011.
Enjoy.

riff A
played once
G|------0-----------|
D|---0-2------------|
A|--2---------------|
E|------------------|


riff B
played 4 times
G|------------------------------0-------------------------------|
D|------2--0-2-2--2-----------0---------------------------------|
A|------------------------0-2--2--------------------------------|
E|------------------3--33---------------------------------------|

What you play:
Riff A x1
Riff B x4
Добавлено: 01.06.2012
Другие материалы по этой песне:
  • Аккорды и текст

Страница создана 01.06.2012
http://primanota.ru/black-keys/ohio-chords.htm
Привет, Гость.
Предлагаем пройти революционный курс по гитаре.
Подарок от PrimaNota.Ru, забирай!