PrimaNota.ru - самый крупный в мире бесплатный архив песенных текстов, аккордов, табулатур и нот


Black Keys - 10 Cent Pistol - аккорды и текст, таба, видео

Регистрация Запомнить меня
Войти через:  Facebook Google Twitter Vk Yandex Mail.ru

Black Keys - 10 Cent Pistol - аккорды и текст, таба, видео

Печатать
Просмотров: 381
10 Cent Pistol
Black Keys
Standard Tuning

Intro/Verse
 Gm                  Cm
e|----3-----3--3--|----3----3--3--|
B|----3-----3--3--|----3----3--4--|
G|----3-----3--3--|----3----3--5--|
D|----5-----------|----5----5--5--|
A|----------------|---------------|
E|3---------------|3--------------|

Chorus
e|-------------------|------------------|----------------|-------------|
B|-------------------|------------------|----------------|-------------|
G|-10/12~~~10/12~~~10|/12~~~~10753/5-|-5/7~~~3/5---3/5|/7~~~~~7---10|
D|--x-------x-------x|--------x---------|-x-----x-----x--|-------x----x|
A|--8/10~~~~8/10~~~~8|/10~~~~~8531/3-|-3/5~~~1/3---1/3|/5~~~~~5----8|
E|-------------------|------------------|----------------|-------------|

 Gm
e|----------------|------------------|-----------------|----3-----3--3--|
B|----------------|------------------|-----------------|----3-----3--3--|
G|/12~~~10/12~~~10|/12~~~~10753/5-|-5/7~~~3/5---53-|----3-----3--3--|
D|-------x-------x|--------x---------|-x-----x-----x---|----5-----------|
A|/10~~~~8/10~~~~8|/10~~~~~8531/3-|-3/5~~~1/3---31-|----------------|
E|----------------|------------------|-----------------|3---------------|

Pre Chorus
This is the live version. On the studio record, he does an octave 
figure overdubbed on top of a Cm Gm chord progression.
      Cm                     Gm
e|------|----3-----3--3--|----3----------|----3-----3--3--|----3-----3-----|
B|------|----4-----4--4--|----4----------|----3-----3--3--|----3-----3-----|
G|------|----5-----5--5--|----5----------|----3-----3--3--|----3-----3-----|
D|------|----5-----------|----5----3--4--|----5-----------|----5-----------|
A|-5--4-|3---------------|3--------------|----------------|----------------|
E|------|----------------|---------------|3---------------|3---------------|

Studio version
Guitar I
  Cm                         Gm
e|-3--3-|3---3-----3--3--|----3----3--3--|----3-----3--3--|----3-----3-----|
B|-4--4-|4---4-----4--4--|----4----4--4--|----3-----3--3--|----3-----3-----|
G|-5--5-|5---5-----3--3--|----3----3--3--|----3-----3--3--|----3-----3-----|
D|-5--5-|5---------------|---------------|----5-----------|----5-----------|
A|------|----------------|---------------|----------------|----------------|
E|------|----------------|---------------|3---------------|----------------|

Guitar II
e|------|----------------|---------------|----------------|----------------|
B|------|----------------|---------------|----------------|----------------|
G|-7--6-|5---------------|--------10--11-|12--------------|----------------|
D|-x--x-|x---------------|---------x--x--|x---------------|----------------|
A|-5--4-|3---------------|---------8--9--|10--------------|----------------|
E|------|----------------|---------------|----------------|----------------|

First solo
e|-------------6-----6-------|-----------------------------|
B|-8-8-8-8-8-8-----8---8~~~--|--------------6-----6-8-6----|
G|---------------------------|--7-7-7-7-7-7-----7-------7--|
D|---------------------------|-----------------------------|
A|---------------------------|-----------------------------|
E|---------------------------|-----------------------------|

e|-------------6-----6-------|--/10--6-8-6-----------------|
B|-8-8-8-8-8-8-----8---8~~~--|---------------8-6-----6h8~~~|
G|---------------------------|-------------------7---------|
D|---------------------------|-----------------------------|
A|---------------------------|-----------------------------|
E|---------------------------|-----------------------------|

Second solo
In bar 3 he turns on an octave effect. 
(It might be an overdub, not sure.)
e|----------6--------|----------6h8---6---|-----------------------|
B|-8-8-8-8----8------|--8-8-8-8-----------|-----------------------|
G|-------------------|--------------------|----------3-----3------|
D|-------------------|--------------------|--5-5-5-5-----5---5~~--|
A|-------------------|--------------------|-----------------------|
E|-------------------|--------------------|-----------------------|

e|------------------|-----6-8-6------|------6--8/10---6-------|
B|------------------|---8------------|---8--------------8-8~~-|
G|--3h5----3--------|----------------|------------------------|
D|-----------5-5~~--|----------------|------------------------|
A|------------------|----------------|------------------------|
E|------------------|----------------|------------------------|

e|-----6-8-6------|-/10----6-8-6---------|----------------------|
B|---8------------|--------------8-------|----------------------|
G|----------------|----------------------|-------------------3--|
D|----------------|----------------------|-----3h5---3---3-5----|
A|----------------|-----------------5--4-|-3-----------5--------|
E|----------------|----------------------|----------------------|

e|-------------------|--------------------|-----6---------|---------------|
B|-------------------|---8-----6-8-8-6h8~~|---8---8-------|---------------|
G|---3-5-/7-5-3-5/7~~|-----5/7------------|---------------|------------3--|
D|-------------------|--------------------|---------------|------5-3-5----|
A|-------------------|--------------------|----------5--4-|-3-------------|
E|-------------------|--------------------|---------------|---------------|

e|-----------------------|----------------------|---------------------|
B|-----------------------|------------6---6--6--|8--/10--6--6h8--6----|
G|-----3---3h5---3---3--5|-/7---7--7------------|-------------------7-|
D|---5-------------5-----|----------------------|---------------------|
A|-----------------------|----------------------|---------------------|
E|-----------------------|----------------------|---------------------|

e|---------------------|6---------/10--6-8-6-|---------------------|
B|6h8~~~~~~-----8-8-8-8|---8~~---------------|8~~~~~---8-8-8-8-8-8-|
G|---------------------|---------------------|---------------------|
D|---------------------|---------------------|---------------------|
A|---------------------|---------------------|---------------------|
E|---------------------|---------------------|---------------------|

e|6-----------------------|
B|--8~~----6--------------|
G|-----------5----3-5-3--|
D|------------------------|
A|------------------------|
E|------------------------|

Outro Solo
e|----------------6----------|----------------6h8----6---6----|
B|----8-8-8-8-8-8-----8-6-8~~|----8-8-8-8-8------------8---8--|
G|---------------------------|--------------------------------|
D|---------------------------|--------------------------------|
A|---------------------------|--------------------------------|
E|---------------------------|--------------------------------|

e|6--5-6-5--6----6h8----6----------|---------------------------|
B|------------------------8-6---6--|-8-6-----------------------|
G|----------------------------5----|-------5---3-5-3---------3|
D|---------------------------------|--------------------5-3----|
A|---------------------------------|------------------------5--|
E|---------------------------------|---------------------------|

e|------------------------|------------3---------------------|
B|------------------------|----------3---6p3-----------5-----|
G|h5-3-----------------3h5|p3----3h5---------5p3---3h5---5p3-|
D|-----5-5~~---5-3-5------|---5------------------5-----------|
A|------------------------|----------------------------------|
E|------------------------|----------------------------------|

e|------------------------|----------------------------|-------------|
B|-------------3----------|----------------------------|-------------|
G|---------3h5---5p3---3h5|--3h5-3h5---3---3h5----3----|-------------|
D|5------------------5----|--------------5------5---5--|-------------|
A|------------------------|----------------------------|-------------|
E|------------------------|----------------------------|-------------|

e|-------------------|--------------------------|--------------|------------|
B|-------------------|--------------------------|--------------|------------|
G|------------17--/12|-10---/12-10---5--3-3/5--|------------3-|------------|
D|----(0)-----x---x--|--x----x---x----x--x-x----|1-------3/5-x-|5-----------|
A|------------15--/10|--8---/10--8---3--1-1/5--|x-------x---1-|x-----------|
E|-------------------|--------------------------|3-------1/3---|3-----------|
Добавлено: 21.08.2015
Другие материалы по этой песне:
  • Аккорды и текст

Страница создана 31.03.2012
http://primanota.ru/black-keys/10-cent-pistol-chords.htm
Привет, Гость.
Предлагаем пройти революционный курс по гитаре.
Подарок от PrimaNota.Ru, забирай!