PrimaNota.ru - самый крупный в мире бесплатный архив песенных текстов, аккордов, табулатур и нот


Black Keys - Im Glad - таба, видео

Регистрация Запомнить меня
Войти через:  Facebook Google Twitter Vk Yandex Mail.ru

Black Keys - Im Glad - таба, видео

Печатать
Просмотров: 122
                                  ~~~~~~~~~~~~~~~~~~~~~~~~~~~~~~~~~~~~~~~~
                                                  I'm Glad 
                                               The Black Keys
                                                  Rare Ones
                                  ~~~~~~~~~~~~~~~~~~~~~~~~~~~~~~~~~~~~~~~~
Tabbed by: Connor O.
Tuning: Standard



Another rare one by the Black Keys, this song is a rendition of the Captain Beefheart
song by the same name from the album Safe as Milk. This tab is a transcription of a live
version of the song performed on the Colin Murray Program on December 8, 2008. The 
Colin Murray Program was a BBC radio program, and this performance was done for a 
segment of the program called "In The Company of" where Colin would host various
musicians and record live performances.

Here is a link to the audio recording: https://www.youtube.com/watch?v=VX11SNHnXNE

Comment or message any ideas or corrections. Please rate my tab.



Key:
where # represents a fret number

#h# - hammer
#p# - pull
/ \ - slides, up and down respectively.
#b# - bend from normal note up to achieve bended note.
#r# - release bend from bended note to normal note.
#b  - a slight bend a.k.a. a curl.



Intro:


  0:00
    
e|---------------------------------------------|
B|---------------------------------------------|
G|-------------2-----------------------2-------|
D|-2---2---2h4-----------2---------2/4---4\2---|
A|-----2---------------------------------------|
E|---------------------------------------------|



Verse 1:


  0:12

e|-4-----4-----4-----2/4-4-4-4---2-----2-------------------------|
B|---5-----5-----5---3/5-5-5-5-----3-----3-----------------------|
G|-----6-----6-----6-4/6-6-6-6-------4-----4---------------------|
D|---------------------------------------------------------------|
A|-0-----0-----0-----0---------0-2-----2-----0h2~p0---0-2-0------|
E|--------------------------------------------------2-------2----|


  0:24
                                                   When       you
e|-4-----4-----7p4-------2/4-4-4-4---2-----2-------2-------------|
B|---5-----5-------5-----3/5-5-5-5-----3-----3-------------------|
G|-----6-----6-------6---4/6-6-6-6-------4-----4-----------------|
D|---------------------------------------------------------------|
A|-0-----0-----0-------0-0---------0-2-----2-----0-2-------------|
E|---------------------------------------------------------------|


  0:36
  first      came 'round   I was sad
e|-4-----4-----4-----4-------2-----2-----------------------------|
B|---5-----5-----5-----5-------3-----3---------------------------|
G|-----6-----6-----6-----6-------4-----4-------------------------|
D|---------------------------------------------------------------|
A|-0-----0-----0-----0-----0-2-----2-----0h2~p0----0-2-0---------|
E|-----------------------------------------------2---------------|


  0:47
  my head    hung down I felt really bad                  Now I'm
e|-4-----4-----4-----7p4--------2-----2-----2-----2--------------|
B|---5-----5-----5-------5--------3-----3-----3-----3------------|
G|-----6-----6-----6-------6--------4-----4-----4-----4----------|
D|---------------------------------------------------------------|
A|-0-----0-----0-----0-------0--2-----2-----2-----2--------------|
E|---------------------------------------------------------------|



Chorus A:


  0:58
   glad, glad about the good times, ohohoh     that we had
e|-2------2------4------4------5------5-5-6-7--------------------|
B|-3------3------5------5------7------7-7-8-9--------------------|
G|-4------4------6------6------7------7-7-8-9--------------------|
D|-4------4------6------6------7------7-7-8-9--------------------|
A|-2------2------4------4------5------5-5-6-7--------------------|
E|-2------2------4------4------5------5-5-6-7--------------------|



Verse 2:


  1:09
                     Oh oh oh ohoh oh
e|-4-----4-----4-----4-------2-----2-----------------------------|
B|---5-----5-----5-----5-------3-----3---------------------------|
G|-----6-----6-----6-----6-------4-----4-------------------------|
D|---------------------------------------------------------------|
A|-0-----0-----0-----0-----0-2-----2-----0h2~p0----0-2-0---------|
E|-----------------------------------------------2-------2-------|


  1:16
                   my   my   my
e|-4-----4-----4-----4-------2-----2-----------------------------|
B|---5-----5-----5-----5-------3-----3---------------------------|
G|-----6-----6-----6-----6-------4-----4-------------------------|
D|---------------------------------------------------------------|
A|-0-----0-----0-----0-----0-2-----2-----0h2~p0----0-2-0---------|
E|-----------------------------------------------2---------------|


  1:31
         we walked in the park         we kissed in the dark
e|-4-----4-----4-----2/4-4-4-4---2-----2-----2-------------------|
B|---5-----5-----5---3/5-5-5-5-----3-----3-----3-----------------|
G|-----6-----6-----6-4/6-6-6-6-------4-----4-----4---------------|
D|---------------------------------------------------------------|
A|-0-----0-----0-----0---------0-2-----2-----2-----0h2--0--------|
E|---------------------------------------------------------2-----|


  1:42
       and the leaves they burned just like, just like the stars   Now I'm
e|-4-----4-----4-----7p4--------2-----2-----2-----2--------------|
B|---5-----5-----5-------5--------3-----3-----3-----3------------|
G|-----6-----6-----6-------6--------4-----4-----4-----4----------|
D|---------------------------------------------------------------|
A|-0-----0-----0-----0-------0--2-----2-----2-----2--------------|
E|---------------------------------------------------------------|



Chorus A:


  1:51
   glad, glad about the good times, ohohoh     that we had
e|-2------2------4------4------5----------6-7--------------------|
B|-3------3------5------5------7----------8-9--------------------|
G|-4------4------6------6------7----------8-9--------------------|
D|-4------4------6------6------7----------8-9--------------------|
A|-2------2------4------4------5----------6-7--------------------|
E|-2------2------4------4------5----------6-7--------------------|



Bridge:


  2:03
                                                              
e|-4-----4-----4-----4-------2-----2-----2-----------------------|
B|---5-----5-----5-----5-------3-----3-----3---------------------|
G|-----6-----6-----6-----6-------4-----4-----4-------------------|
D|---------------------------------------------------------------|
A|-0-----0-----0-----0-----0-2-----2-----2-----------------------|
E|---------------------------------------------------------------|



Chorus B:


  2:13
           you ran away        and I cried night and day over what you done
e|-5-4-3-2---2---2-2---------2---2---2-2-----------2---2---2-2-2-2-----------|
B|-5-4-3-2---2---2-3---------2---2---2-3---5/7-7---2---2---2-3-3-3-----------|
G|-6-5-4-2---2---2-4---4b6---2---2---2-4-----------2---2---2-4-4-4-4b6r4b6---|
D|-7-6-5-4---4---4-4---------4---4---4-4-----------4---4---4-4-4-4-----------|
A|-7-6-5-4---4---4-2---------4---4---4-2-----------4---4---4-2-2-2-----------|
E|-5-4-3-2---2---2-2---------2---2---2-2-----------2---2---2-2-2-2-----------|


  2:28
   and I had to pay          left me so blue         not knowing where to go
e|-2---2---2-2-------------2---2---2-2-2-2-2-2-2---2---2---2-2-2-2-2---2-2---|
B|-2---2---2-3-------------2---2---2-3-3-3-3-3-3---2---2---2-3-3-3-3---3-3---|
G|-2---2---2-4-------------2---2---2-4-4-4-4-4-4---2---2---2-4-4-4-2h4-2-2---|
D|-4---4---4-4---2/4-------4---4---4-4-4-4-4-4-4---4---4---4-4-4-4-4---4-4---|
A|-4---4---4-2-------2-0---4---4---4-2-2-2-2-2-2---4---4---4-2-2-2-2---2-2---|
E|-2---2---2-2-------------2---2---2-2-2-2-2-2-2---2---2---2-2-2-2-2---2-2---|


  2:43  
     what to do          please come back and let the sun shine through
e|-2---2---2-2---------2---2---2-2---2---2---2---2-2-2-2-2-2-2-2-2-2-2-2-2---|
B|-2---2---2-3---------2---2---2-3---3---3---3---2-2-2-2-2-2-3-3-3-3-3-3-2---|
G|-2---2---2-4---4b6---2---2---2-4---2h4-2h4-2---2-2-2-2-2-2-4-4-4-4-4-4-2---|
D|-4---4---4-4---------4---4---4-4---4---4---4---4-4-4-4-4-4-4-4-4-4-4-4-4---|
A|-4---4---4-2---------4---4---4-2---2---2---2---4-4-4-4-4-4-2-2-2-2-2-2-4---|
E|-2---2---2-2---------2---2---2-2---2---2---2---2-2-2-2-2-2-2-2-2-2-2-2-2---|


  3:00

e|-------------|
B|-------------|
G|-----2-------|
D|-2/4---4\2---|
A|-------------|
E|-------------|



Verse 3:


  3:02
                     
e|-4-----4-----4-----2/4-4-4-4---2-----2-------------------------|
B|---5-----5---------3/5-5-5-5-----3-----3-----------------------|
G|-----6-----6-------4/6-6-6-6-------4-----4---------------------|
D|---------------------------------------------------------------|
A|-0-----0-----0-----0---------0-2-----2-----0h2~p0---0-2-0------|
E|--------------------------------------------------2-------2----|


  3:13
                   
e|-4-----4-----7p4-------2/4-4-4-4---2-----2---------------------|
B|---5-----5-------5-----3/5-5-5-5-----------3-------------------|
G|-----6-----6-------6---4/6-6-6-6-------------4-----------------|
D|---------------------------------------------------------------|
A|-0-----0-----0-------0-0---------0-2-----2-----0h2~p0---0-2-0--|
E|------------------------------------------------------2--------|


  3:24
       Sun passed behind the clouds and I felt so proud   
e|-4-----4-----4-----2/4-4-4-4---2-----2-----2-------------------|
B|---5-----5-----5---3/5-5-5-5-----3-----3-----3-----------------|
G|-----6-----6-----6-4/6-6-6-6-------4-----4-----4---------------|
D|---------------------------------------------------------------|
A|-0-----0-----0-----0---------0-2-----2-----2-----0h2--0--------|
E|---------------------------------------------------------2-----|


  3:34 
       We walk down the         we smile at people we meet, we meet
e|-4-----4-----4-----7p4--------2-----2-----2-----2--------------|
B|---5-----5-----5-------5--------3-----3-----3-----3------------|
G|-----6-----6-----6-------6--------4-----4-----4-----4----------|
D|---------------------------------------------------------------|
A|-0-----0-----0-----0-------0--2-----2-----2-----2--------------|
E|---------------------------------------------------------------|



Chorus A:


  3:45
   glad, glad about the good times, ohohoh     that we had
e|-2------2------4------4------5------5---5/7--------------------|
B|-3------3------5------5------7------7---7/9--------------------|
G|-4------4------6------6------7------7---7/9--------------------|
D|-4------4------6------6------7------7---7/9--------------------|
A|-2------2------4------4------5------5---5/7--------------------|
E|-2------2------4------4------5------5---5/7--------------------|



Bridge:


  3:55
                                                              
e|-4-----4-----4-----4-------2-----2-----2-----------------------|
B|---5-----5-----5-----5-------3-----3-----3---------------------|
G|-----6-----6-----6-----6-------4-----4-----4-------------------|
D|---------------------------------------------------------------|
A|-0-----0-----0-----0-----0-2-----2-----2-----------------------|
E|---------------------------------------------------------------|



Chorus B:


  4:04
           you went away        and I cried night and day over what you done
e|-5-4-3-2---2---2-2---------2---2---2-2---------2---2---2-2---------------|
B|-5-4-3-2---2---2-3---------2---2---2-3---------2---2---2-3-------5/7-7---|
G|-6-5-4-2---2---2-4---4b6---2---2---2-4---4b6---2---2---2-4---4/6---------|
D|-7-6-5-4---4---4-4---------4---4---4-4---------4---4---4-4---------------|
A|-7-6-5-4---4---4-2---------4---4---4-2---------4---4---4-2---------------|
E|-5-4-3-2---2---2-2---------2---2---2-2---------2---2---2-2---------------|


  4:20
   and I had to pay          left me so blue         not knowing where to go
e|-2---2---2-2----------2---2---2-2-2-2---------2---2---2-2-2-2-2---2-2----|
B|-2---2---2-3----------2---2---2-3-3-3---------2---2---2-3-3-3-3---3-3----|
G|-2---2---2-4------2---2---2---2-4-4-4-----2---2---2---2-4-4-4-2h4-2-2----|
D|-4---4---4-4---4b-----4---4---4-4-4-4-2h4-----4---4---4-4-4-4-4---4-4----|
A|-4---4---4-2----------4---4---4-2-2-2---------4---4---4-2-2-2-2---2-2----|
E|-2---2---2-2----------2---2---2-2-2-2---------2---2---2-2-2-2-2---2-2----|


  4:33
     what to do          please come back and let the sun shine through
e|-2---2---2-2---2-2-2---2---2---2-2---2---2---2---2-2-2-2-2-2-2-2-2-2-2-2-|
B|-2---2---2-3---3-3-3---2---2---2-3---3---3---3---2-2-2-2-2-2-3-3-3-3-3-3-|
G|-2---2---2-4---4-4-4---2---2---2-4---2h4-2h4-2---2-2-2-2-2-2-4-4-4-4-4-4-|
D|-4---4---4-4---4-4-4---4---4---4-4---4---4---4---4-4-4-4-4-4-4-4-4-4-4-4-|
A|-4---4---4-2---2-2-2---4---4---4-2---2---2---2---4-4-4-4-4-4-2-2-2-2-2-2-|
E|-2---2---2-2---2-2-2---2---2---2-2---2---2---2---2-2-2-2-2-2-2-2-2-2-2-2-|


  4:47
   oh please shine through
e|-2-2-2-2-2-2-2-2-2-2-2-2---|
B|-2-2-2-2-2-2-3-3-3-3-3-3---|
G|-2-2-2-2-2-2-4-4-4-4-4-4---|  X5
D|-4-4-4-4-4-4-4-4-4-4-4-4---|
A|-4-4-4-4-4-4-2-2-2-2-2-2---|
E|-2-2-2-2-2-2-2-2-2-2-2-2---|



Outro:


  5:09

e|-2------5---4---3---2------|
B|-2------5---4---4---2------|
G|-2------6---5---5---2------|
D|-4------7---6---5---4------|
A|-4------7---6---5---4------|
E|-2------5---4---3---2------|
Добавлено: 20.10.2013
Другие материалы по этой песне:
  • Аккорды и текст

Страница создана 20.10.2013
http://primanota.ru/black-keys/im-glad-chords.htm
Привет, Гость.
Предлагаем пройти революционный курс по гитаре.
Подарок от PrimaNota.Ru, забирай!